  0
SECTION
  2
HEADER
  9
$ACADVER
  1
AC1015
  9
$ACADMAINTVER
 70
    20
  9
$DWGCODEPAGE
  3
ANSI_1252
  9
$INSBASE
 10
0.0
 20
0.0
 30
0.0
  9
$EXTMIN
 10
-9.322053859501487
 20
-0.9003321018890133
 30
-0.0015258207003583
  9
$EXTMAX
 10
9.230179575383232
 20
0.8912687767330567
 30
0.0000000349246037
  9
$LIMMIN
 10
0.0
 20
0.0
  9
$LIMMAX
 10
12.0
 20
9.0
  9
$ORTHOMODE
 70
     0
  9
$REGENMODE
 70
     1
  9
$FILLMODE
 70
     1
  9
$QTEXTMODE
 70
     0
  9
$MIRRTEXT
 70
     1
  9
$LTSCALE
 40
1.0
  9
$ATTMODE
 70
     1
  9
$TEXTSIZE
 40
0.2
  9
$TRACEWID
 40
0.05
  9
$TEXTSTYLE
  7
Standard
  9
$CLAYER
  8
0
  9
$CELTYPE
  6
ByLayer
  9
$CECOLOR
 62
   256
  9
$CELTSCALE
 40
1.0
  9
$DISPSILH
 70
     0
  9
$DIMSCALE
 40
1.0
  9
$DIMASZ
 40
0.18
  9
$DIMEXO
 40
0.0625
  9
$DIMDLI
 40
0.38
  9
$DIMRND
 40
0.0
  9
$DIMDLE
 40
0.0
  9
$DIMEXE
 40
0.18
  9
$DIMTP
 40
0.0
  9
$DIMTM
 40
0.0
  9
$DIMTXT
 40
0.18
  9
$DIMCEN
 40
0.09
  9
$DIMTSZ
 40
0.0
  9
$DIMTOL
 70
     0
  9
$DIMLIM
 70
     0
  9
$DIMTIH
 70
     1
  9
$DIMTOH
 70
     1
  9
$DIMSE1
 70
     0
  9
$DIMSE2
 70
     0
  9
$DIMTAD
 70
     0
  9
$DIMZIN
 70
     0
  9
$DIMBLK
  1

  9
$DIMASO
 70
     1
  9
$DIMSHO
 70
     1
  9
$DIMPOST
  1

  9
$DIMAPOST
  1

  9
$DIMALT
 70
     0
  9
$DIMALTD
 70
     2
  9
$DIMALTF
 40
25.4
  9
$DIMLFAC
 40
1.0
  9
$DIMTOFL
 70
     0
  9
$DIMTVP
 40
0.0
  9
$DIMTIX
 70
     0
  9
$DIMSOXD
 70
     0
  9
$DIMSAH
 70
     0
  9
$DIMBLK1
  1

  9
$DIMBLK2
  1

  9
$DIMSTYLE
  2
Standard
  9
$DIMCLRD
 70
     0
  9
$DIMCLRE
 70
     0
  9
$DIMCLRT
 70
     0
  9
$DIMTFAC
 40
1.0
  9
$DIMGAP
 40
0.09
  9
$DIMJUST
 70
     0
  9
$DIMSD1
 70
     0
  9
$DIMSD2
 70
     0
  9
$DIMTOLJ
 70
     1
  9
$DIMTZIN
 70
     0
  9
$DIMALTZ
 70
     0
  9
$DIMALTTZ
 70
     0
  9
$DIMUPT
 70
     0
  9
$DIMDEC
 70
     4
  9
$DIMTDEC
 70
     4
  9
$DIMALTU
 70
     2
  9
$DIMALTTD
 70
     2
  9
$DIMTXSTY
  7
Standard
  9
$DIMAUNIT
 70
     0
  9
$DIMADEC
 70
     0
  9
$DIMALTRND
 40
0.0
  9
$DIMAZIN
 70
     0
  9
$DIMDSEP
 70
    46
  9
$DIMATFIT
 70
     3
  9
$DIMFRAC
 70
     0
  9
$DIMLDRBLK
  1

  9
$DIMLUNIT
 70
     2
  9
$DIMLWD
 70
    -2
  9
$DIMLWE
 70
    -2
  9
$DIMTMOVE
 70
     0
  9
$LUNITS
 70
     2
  9
$LUPREC
 70
     4
  9
$SKETCHINC
 40
0.1
  9
$FILLETRAD
 40
0.5
  9
$AUNITS
 70
     0
  9
$AUPREC
 70
     0
  9
$MENU
  1
.
  9
$ELEVATION
 40
0.0
  9
$PELEVATION
 40
0.0
  9
$THICKNESS
 40
0.0
  9
$LIMCHECK
 70
     0
  9
$CHAMFERA
 40
0.5
  9
$CHAMFERB
 40
0.5
  9
$CHAMFERC
 40
1.0
  9
$CHAMFERD
 40
0.0
  9
$SKPOLY
 70
     0
  9
$TDCREATE
 40
2455469.722093241
  9
$TDUCREATE
 40
2455469.638759907
  9
$TDUPDATE
 40
2455469.722387408
  9
$TDUUPDATE
 40
2455469.639054074
  9
$TDINDWG
 40
0.0001775463
  9
$TDUSRTIMER
 40
0.0001775000
  9
$USRTIMER
 70
     1
  9
$ANGBASE
 50
0.0
  9
$ANGDIR
 70
     0
  9
$PDMODE
 70
     0
  9
$PDSIZE
 40
0.0
  9
$PLINEWID
 40
0.0
  9
$SPLFRAME
 70
     0
  9
$SPLINETYPE
 70
     6
  9
$SPLINESEGS
 70
     8
  9
$HANDSEED
  5
8F
  9
$SURFTAB1
 70
     6
  9
$SURFTAB2
 70
     6
  9
$SURFTYPE
 70
     6
  9
$SURFU
 70
     6
  9
$SURFV
 70
     6
  9
$UCSBASE
  2

  9
$UCSNAME
  2

  9
$UCSORG
 10
0.0
 20
0.0
 30
0.0
  9
$UCSXDIR
 10
1.0
 20
0.0
 30
0.0
  9
$UCSYDIR
 10
0.0
 20
1.0
 30
0.0
  9
$UCSORTHOREF
  2

  9
$UCSORTHOVIEW
 70
     0
  9
$UCSORGTOP
 10
0.0
 20
0.0
 30
0.0
  9
$UCSORGBOTTOM
 10
0.0
 20
0.0
 30
0.0
  9
$UCSORGLEFT
 10
0.0
 20
0.0
 30
0.0
  9
$UCSORGRIGHT
 10
0.0
 20
0.0
 30
0.0
  9
$UCSORGFRONT
 10
0.0
 20
0.0
 30
0.0
  9
$UCSORGBACK
 10
0.0
 20
0.0
 30
0.0
  9
$PUCSBASE
  2

  9
$PUCSNAME
  2

  9
$PUCSORG
 10
0.0
 20
0.0
 30
0.0
  9
$PUCSXDIR
 10
1.0
 20
0.0
 30
0.0
  9
$PUCSYDIR
 10
0.0
 20
1.0
 30
0.0
  9
$PUCSORTHOREF
  2

  9
$PUCSORTHOVIEW
 70
     0
  9
$PUCSORGTOP
 10
0.0
 20
0.0
 30
0.0
  9
$PUCSORGBOTTOM
 10
0.0
 20
0.0
 30
0.0
  9
$PUCSORGLEFT
 10
0.0
 20
0.0
 30
0.0
  9
$PUCSORGRIGHT
 10
0.0
 20
0.0
 30
0.0
  9
$PUCSORGFRONT
 10
0.0
 20
0.0
 30
0.0
  9
$PUCSORGBACK
 10
0.0
 20
0.0
 30
0.0
  9
$USERI1
 70
     0
  9
$USERI2
 70
     0
  9
$USERI3
 70
     0
  9
$USERI4
 70
     0
  9
$USERI5
 70
     0
  9
$USERR1
 40
0.0
  9
$USERR2
 40
0.0
  9
$USERR3
 40
0.0
  9
$USERR4
 40
0.0
  9
$USERR5
 40
0.0
  9
$WORLDVIEW
 70
     1
  9
$SHADEDGE
 70
     3
  9
$SHADEDIF
 70
    70
  9
$TILEMODE
 70
     1
  9
$MAXACTVP
 70
    64
  9
$PINSBASE
 10
0.0
 20
0.0
 30
0.0
  9
$PLIMCHECK
 70
     0
  9
$PEXTMIN
 10
1.000000000000000E+20
 20
1.000000000000000E+20
 30
1.000000000000000E+20
  9
$PEXTMAX
 10
-1.000000000000000E+20
 20
-1.000000000000000E+20
 30
-1.000000000000000E+20
  9
$PLIMMIN
 10
0.0
 20
0.0
  9
$PLIMMAX
 10
12.0
 20
9.0
  9
$UNITMODE
 70
     0
  9
$VISRETAIN
 70
     1
  9
$PLINEGEN
 70
     0
  9
$PSLTSCALE
 70
     1
  9
$TREEDEPTH
 70
  3020
  9
$CMLSTYLE
  2
Standard
  9
$CMLJUST
 70
     0
  9
$CMLSCALE
 40
1.0
  9
$PROXYGRAPHICS
 70
     1
  9
$MEASUREMENT
 70
     0
  9
$CELWEIGHT
370
    -1
  9
$ENDCAPS
280
     0
  9
$JOINSTYLE
280
     0
  9
$LWDISPLAY
290
     0
  9
$INSUNITS
 70
     5
  9
$HYPERLINKBASE
  1

  9
$STYLESHEET
  1

  9
$XEDIT
290
     1
  9
$CEPSNTYPE
380
     0
  9
$PSTYLEMODE
290
     1
  9
$FINGERPRINTGUID
  2
{E39EFBFD-6133-4DB8-BCEF-19D4F04AA3F5}
  9
$VERSIONGUID
  2
{920394BD-C7D7-4313-89FE-0CF0EB91D6F4}
  9
$EXTNAMES
290
     1
  9
$PSVPSCALE
 40
0.0
  9
$OLESTARTUP
290
     0
  0
ENDSEC
  0
SECTION
  2
CLASSES
  0
CLASS
  1
ACDBDICTIONARYWDFLT
  2
AcDbDictionaryWithDefault
  3
ObjectDBX Classes
 90
        0
280
     0
281
     0
  0
CLASS
  1
VISUALSTYLE
  2
AcDbVisualStyle
  3
ObjectDBX Classes
 90
     4095
280
     0
281
     0
  0
CLASS
  1
MATERIAL
  2
AcDbMaterial
  3
ObjectDBX Classes
 90
        0
280
     0
281
     0
  0
CLASS
  1
TABLESTYLE
  2
AcDbTableStyle
  3
ObjectDBX Classes
 90
     2047
280
     0
281
     0
  0
CLASS
  1
DICTIONARYVAR
  2
AcDbDictionaryVar
  3
ObjectDBX Classes
 90
        0
280
     0
281
     0
  0
CLASS
  1
ACDBPLACEHOLDER
  2
AcDbPlaceHolder
  3
ObjectDBX Classes
 90
        0
280
     0
281
     0
  0
CLASS
  1
LAYOUT
  2
AcDbLayout
  3
ObjectDBX Classes
 90
        0
280
     0
281
     0
  0
ENDSEC
  0
SECTION
  2
TABLES
  0
TABLE
  2
VPORT
  5
8
330
0
100
AcDbSymbolTable
 70
     2
  0
VPORT
  5
86
330
8
100
AcDbSymbolTableRecord
100
AcDbViewportTableRecord
  2
*Active
 70
     0
 10
0.0
 20
0.0
 11
1.0
 21
1.0
 12
-0.0459371420591275
 22
-0.0045316625779783
 13
0.0
 23
0.0
 14
0.5
 24
0.5
 15
0.5
 25
0.5
 16
0.0
 26
0.0
 36
1.0
 17
0.0
 27
0.0
 37
0.0
 40
8.23128841582708
 41
2.260920897284533
 42
50.0
 43
0.0
 44
0.0
 50
0.0
 51
0.0
 71
     0
 72
   100
 73
     1
 74
     3
 75
     0
 76
     0
 77
     0
 78
     0
281
     0
 65
     1
110
0.0
120
0.0
130
0.0
111
1.0
121
0.0
131
0.0
112
0.0
122
1.0
132
0.0
 79
     0
146
0.0
  0
ENDTAB
  0
TABLE
  2
LTYPE
  5
5
330
0
100
AcDbSymbolTable
 70
     1
  0
LTYPE
  5
14
330
5
100
AcDbSymbolTableRecord
100
AcDbLinetypeTableRecord
  2
ByBlock
 70
     0
  3

 72
    65
 73
     0
 40
0.0
  0
LTYPE
  5
15
330
5
100
AcDbSymbolTableRecord
100
AcDbLinetypeTableRecord
  2
ByLayer
 70
     0
  3

 72
    65
 73
     0
 40
0.0
  0
LTYPE
  5
16
330
5
100
AcDbSymbolTableRecord
100
AcDbLinetypeTableRecord
  2
Continuous
 70
     0
  3
Solid line
 72
    65
 73
     0
 40
0.0
  0
ENDTAB
  0
TABLE
  2
LAYER
  5
2
330
0
100
AcDbSymbolTable
 70
     2
  0
LAYER
  5
10
330
2
100
AcDbSymbolTableRecord
100
AcDbLayerTableRecord
  2
0
 70
     0
 62
     7
  6
Continuous
370
    -3
390
F
  0
LAYER
  5
40
330
2
100
AcDbSymbolTableRecord
100
AcDbLayerTableRecord
  2
Ebene 1
 70
     0
 62
     7
  6
Continuous
370
    -3
390
F
  0
ENDTAB
  0
TABLE
  2
STYLE
  5
3
330
0
100
AcDbSymbolTable
 70
     1
  0
STYLE
  5
11
330
3
100
AcDbSymbolTableRecord
100
AcDbTextStyleTableRecord
  2
Standard
 70
     0
 40
0.0
 41
1.0
 50
0.0
 71
     0
 42
0.2
  3
txt
  4

  0
ENDTAB
  0
TABLE
  2
VIEW
  5
6
330
0
100
AcDbSymbolTable
 70
     0
  0
ENDTAB
  0
TABLE
  2
UCS
  5
7
330
0
100
AcDbSymbolTable
 70
     0
  0
ENDTAB
  0
TABLE
  2
APPID
  5
9
330
0
100
AcDbSymbolTable
 70
     2
  0
APPID
  5
12
330
9
100
AcDbSymbolTableRecord
100
AcDbRegAppTableRecord
  2
ACAD
 70
     0
  0
APPID
  5
3F
330
9
100
AcDbSymbolTableRecord
100
AcDbRegAppTableRecord
  2
ODA
 70
     0
  0
ENDTAB
  0
TABLE
  2
DIMSTYLE
  5
A
330
0
100
AcDbSymbolTable
 70
     1
100
AcDbDimStyleTable
 71
     0
  0
DIMSTYLE
105
27
330
A
100
AcDbSymbolTableRecord
100
AcDbDimStyleTableRecord
  2
Standard
 70
     0
340
11
  0
ENDTAB
  0
TABLE
  2
BLOCK_RECORD
  5
1
330
0
100
AcDbSymbolTable
 70
     1
  0
BLOCK_RECORD
  5
1F
330
1
100
AcDbSymbolTableRecord
100
AcDbBlockTableRecord
  2
*Model_Space
340
22
  0
BLOCK_RECORD
  5
1B
330
1
100
AcDbSymbolTableRecord
100
AcDbBlockTableRecord
  2
*Paper_Space
340
1E
  0
BLOCK_RECORD
  5
23
330
1
100
AcDbSymbolTableRecord
100
AcDbBlockTableRecord
  2
*Paper_Space0
340
26
  0
ENDTAB
  0
ENDSEC
  0
SECTION
  2
BLOCKS
  0
BLOCK
  5
20
330
1F
100
AcDbEntity
  8
0
100
AcDbBlockBegin
  2
*Model_Space
 70
     0
 10
0.0
 20
0.0
 30
0.0
  3
*Model_Space
  1

  0
ENDBLK
  5
21
330
1F
100
AcDbEntity
  8
0
100
AcDbBlockEnd
  0
BLOCK
  5
1C
330
1B
100
AcDbEntity
 67
     1
  8
0
100
AcDbBlockBegin
  2
*Paper_Space
 70
     0
 10
0.0
 20
0.0
 30
0.0
  3
*Paper_Space
  1

  0
ENDBLK
  5
1D
330
1B
100
AcDbEntity
 67
     1
  8
0
100
AcDbBlockEnd
  0
BLOCK
  5
24
330
23
100
AcDbEntity
 67
     1
  8
0
100
AcDbBlockBegin
  2
*Paper_Space0
 70
     0
 10
0.0
 20
0.0
 30
0.0
  3
*Paper_Space0
  1

  0
ENDBLK
  5
25
330
23
100
AcDbEntity
 67
     1
  8
0
100
AcDbBlockEnd
  0
ENDSEC
  0
SECTION
  2
ENTITIES
  0
SPLINE
  5
41
330
1F
100
AcDbEntity
  8
Ebene 1
 62
   250
100
AcDbSpline
210
0.0
220
0.0
230
1.0
 70
    11
 71
     3
 72
   124
 73
   120
 74
     0
 42
0.0000000001
 43
0.0000000001
 40
0.0
 40
0.0
 40
0.0
 40
0.0
 40
0.032258064516129
 40
0.032258064516129
 40
0.032258064516129
 40
0.032258064516129
 40
0.0645161290322581
 40
0.0645161290322581
 40
0.0645161290322581
 40
0.0645161290322581
 40
0.0967741935483871
 40
0.0967741935483871
 40
0.0967741935483871
 40
0.0967741935483871
 40
0.1290322580645161
 40
0.1290322580645161
 40
0.1290322580645161
 40
0.1290322580645161
 40
0.1612903225806452
 40
0.1612903225806452
 40
0.1612903225806452
 40
0.1612903225806452
 40
0.1935483870967742
 40
0.1935483870967742
 40
0.1935483870967742
 40
0.1935483870967742
 40
0.2258064516129032
 40
0.2258064516129032
 40
0.2258064516129032
 40
0.2258064516129032
 40
0.2580645161290323
 40
0.2580645161290323
 40
0.2580645161290323
 40
0.2580645161290323
 40
0.2903225806451613
 40
0.2903225806451613
 40
0.2903225806451613
 40
0.2903225806451613
 40
0.3225806451612903
 40
0.3225806451612903
 40
0.3225806451612903
 40
0.3225806451612903
 40
0.3548387096774194
 40
0.3548387096774194
 40
0.3548387096774194
 40
0.3548387096774194
 40
0.3870967741935484
 40
0.3870967741935484
 40
0.3870967741935484
 40
0.3870967741935484
 40
0.4193548387096774
 40
0.4193548387096774
 40
0.4193548387096774
 40
0.4193548387096774
 40
0.4516129032258064
 40
0.4516129032258064
 40
0.4516129032258064
 40
0.4516129032258064
 40
0.4838709677419355
 40
0.4838709677419355
 40
0.4838709677419355
 40
0.4838709677419355
 40
0.5161290322580645
 40
0.5161290322580645
 40
0.5161290322580645
 40
0.5161290322580645
 40
0.5483870967741935
 40
0.5483870967741935
 40
0.5483870967741935
 40
0.5483870967741935
 40
0.5806451612903226
 40
0.5806451612903226
 40
0.5806451612903226
 40
0.5806451612903226
 40
0.6129032258064516
 40
0.6129032258064516
 40
0.6129032258064516
 40
0.6129032258064516
 40
0.6451612903225806
 40
0.6451612903225806
 40
0.6451612903225806
 40
0.6451612903225806
 40
0.6774193548387096
 40
0.6774193548387096
 40
0.6774193548387096
 40
0.6774193548387096
 40
0.7096774193548388
 40
0.7096774193548388
 40
0.7096774193548388
 40
0.7096774193548388
 40
0.7419354838709678
 40
0.7419354838709678
 40
0.7419354838709678
 40
0.7419354838709678
 40
0.7741935483870968
 40
0.7741935483870968
 40
0.7741935483870968
 40
0.7741935483870968
 40
0.8064516129032258
 40
0.8064516129032258
 40
0.8064516129032258
 40
0.8064516129032258
 40
0.8387096774193548
 40
0.8387096774193548
 40
0.8387096774193548
 40
0.8387096774193548
 40
0.8709677419354838
 40
0.8709677419354838
 40
0.8709677419354838
 40
0.8709677419354838
 40
0.9032258064516128
 40
0.9032258064516128
 40
0.9032258064516128
 40
0.9032258064516128
 40
0.9354838709677419
 40
0.9354838709677419
 40
0.9354838709677419
 40
0.9354838709677419
 40
1.0
 40
1.0
 40
1.0
 40
1.0
 10
-0.61014
 20
0.8112099999999999
 30
0.0
 10
-0.61014
 20
0.8112099999999999
 30
0.0
 10
-1.04882
 20
0.8112099999999999
 30
0.0
 10
-1.04882
 20
0.8112099999999999
 30
0.0
 10
-1.04882
 20
0.8112099999999999
 30
0.0
 10
-1.04882
 20
0.8112099999999999
 30
0.0
 10
-1.071499999999999
 20
0.6448100000000001
 30
0.0
 10
-1.071499999999999
 20
0.6448100000000001
 30
0.0
 10
-1.071499999999999
 20
0.6448100000000001
 30
0.0
 10
-1.071499999999999
 20
0.6448100000000001
 30
0.0
 10
-0.95616
 20
0.6448100000000001
 30
0.0
 10
-0.95616
 20
0.6448100000000001
 30
0.0
 10
-0.95616
 20
0.6448100000000001
 30
0.0
 10
-0.95616
 20
0.6448100000000001
 30
0.0
 10
-1.207659999999999
 20
-0.03968
 30
0.0
 10
-1.207659999999999
 20
-0.03968
 30
0.0
 10
-1.207659999999999
 20
-0.03968
 30
0.0
 10
-1.207659999999999
 20
-0.03968
 30
0.0
 10
-1.251129999999999
 20
-0.20987
 30
0.0
 10
-1.251129999999999
 20
-0.20987
 30
0.0
 10
-1.251129999999999
 20
-0.20987
 30
0.0
 10
-1.251129999999999
 20
-0.20987
 30
0.0
 10
-1.260589999999999
 20
-0.20987
 30
0.0
 10
-1.260589999999999
 20
-0.20987
 30
0.0
 10
-1.260589999999999
 20
-0.20987
 30
0.0
 10
-1.260589999999999
 20
-0.20987
 30
0.0
 10
-1.253029999999999
 20
-0.03968
 30
0.0
 10
-1.253029999999999
 20
-0.03968
 30
0.0
 10
-1.253029999999999
 20
-0.03968
 30
0.0
 10
-1.253029999999999
 20
-0.03968
 30
0.0
 10
-1.340019999999999
 20
0.8112099999999999
 30
0.0
 10
-1.340019999999999
 20
0.8112099999999999
 30
0.0
 10
-1.340019999999999
 20
0.8112099999999999
 30
0.0
 10
-1.340019999999999
 20
0.8112099999999999
 30
0.0
 10
-1.674709999999999
 20
0.8112099999999999
 30
0.0
 10
-1.674709999999999
 20
0.8112099999999999
 30
0.0
 10
-1.674709999999999
 20
0.8112099999999999
 30
0.0
 10
-1.674709999999999
 20
0.8112099999999999
 30
0.0
 10
-2.003709999999999
 20
-0.01698
 30
0.0
 10
-2.003709999999999
 20
-0.01698
 30
0.0
 10
-2.003709999999999
 20
-0.01698
 30
0.0
 10
-2.003709999999999
 20
-0.01698
 30
0.0
 10
-2.056659999999999
 20
-0.20987
 30
0.0
 10
-2.056659999999999
 20
-0.20987
 30
0.0
 10
-2.056659999999999
 20
-0.20987
 30
0.0
 10
-2.056659999999999
 20
-0.20987
 30
0.0
 10
-2.06044
 20
-0.20987
 30
0.0
 10
-2.06044
 20
-0.20987
 30
0.0
 10
-2.06044
 20
-0.20987
 30
0.0
 10
-2.06044
 20
-0.20987
 30
0.0
 10
-2.054769999999999
 20
-0.01888
 30
0.0
 10
-2.054769999999999
 20
-0.01888
 30
0.0
 10
-2.054769999999999
 20
-0.01888
 30
0.0
 10
-2.054769999999999
 20
-0.01888
 30
0.0
 10
-2.08314
 20
0.6448100000000001
 30
0.0
 10
-2.08314
 20
0.6448100000000001
 30
0.0
 10
-2.08314
 20
0.6448100000000001
 30
0.0
 10
-2.08314
 20
0.6448100000000001
 30
0.0
 10
-1.967779999999999
 20
0.6448100000000001
 30
0.0
 10
-1.967779999999999
 20
0.6448100000000001
 30
0.0
 10
-1.967779999999999
 20
0.6448100000000001
 30
0.0
 10
-1.967779999999999
 20
0.6448100000000001
 30
0.0
 10
-1.9451
 20
0.8112099999999999
 30
0.0
 10
-1.9451
 20
0.8112099999999999
 30
0.0
 10
-1.9451
 20
0.8112099999999999
 30
0.0
 10
-1.9451
 20
0.8112099999999999
 30
0.0
 10
-2.415939999999999
 20
0.8112099999999999
 30
0.0
 10
-2.415939999999999
 20
0.8112099999999999
 30
0.0
 10
-2.415939999999999
 20
0.8112099999999999
 30
0.0
 10
-2.415939999999999
 20
0.8112099999999999
 30
0.0
 10
-2.43862
 20
0.6448100000000001
 30
0.0
 10
-2.43862
 20
0.6448100000000001
 30
0.0
 10
-2.43862
 20
0.6448100000000001
 30
0.0
 10
-2.43862
 20
0.6448100000000001
 30
0.0
 10
-2.362989999999999
 20
0.64104
 30
0.0
 10
-2.362989999999999
 20
0.64104
 30
0.0
 10
-2.362989999999999
 20
0.64104
 30
0.0
 10
-2.362989999999999
 20
0.64104
 30
0.0
 10
-2.264659999999999
 20
-0.5086300000000001
 30
0.0
 10
-2.264659999999999
 20
-0.5086300000000001
 30
0.0
 10
-2.264659999999999
 20
-0.5086300000000001
 30
0.0
 10
-2.264659999999999
 20
-0.5086300000000001
 30
0.0
 10
-1.95834
 20
-0.5086300000000001
 30
0.0
 10
-1.95834
 20
-0.5086300000000001
 30
0.0
 10
-1.95834
 20
-0.5086300000000001
 30
0.0
 10
-1.95834
 20
-0.5086300000000001
 30
0.0
 10
-1.591509999999999
 20
0.44627
 30
0.0
 10
-1.591509999999999
 20
0.44627
 30
0.0
 10
-1.591509999999999
 20
0.44627
 30
0.0
 10
-1.591509999999999
 20
0.44627
 30
0.0
 10
-1.555579999999999
 20
0.57863
 30
0.0
 10
-1.555579999999999
 20
0.57863
 30
0.0
 10
-1.555579999999999
 20
0.57863
 30
0.0
 10
-1.555579999999999
 20
0.57863
 30
0.0
 10
-1.54802
 20
0.57863
 30
0.0
 10
-1.54802
 20
0.57863
 30
0.0
 10
-1.54802
 20
0.57863
 30
0.0
 10
-1.54802
 20
0.57863
 30
0.0
 10
-1.55179
 20
0.44438
 30
0.0
 10
-1.55179
 20
0.44438
 30
0.0
 10
-1.55179
 20
0.44438
 30
0.0
 10
-1.55179
 20
0.44438
 30
0.0
 10
-1.445899999999999
 20
-0.5086300000000001
 30
0.0
 10
-1.445899999999999
 20
-0.5086300000000001
 30
0.0
 10
-1.445899999999999
 20
-0.5086300000000001
 30
0.0
 10
-1.445899999999999
 20
-0.5086300000000001
 30
0.0
 10
-1.14714
 20
-0.5086300000000001
 30
0.0
 10
-1.14714
 20
-0.5086300000000001
 30
0.0
 10
-1.14714
 20
-0.5086300000000001
 30
0.0
 10
-1.14714
 20
-0.5086300000000001
 30
0.0
 10
-0.7103600000000001
 20
0.64104
 30
0.0
 10
-0.7103600000000001
 20
0.64104
 30
0.0
 10
-0.7103600000000001
 20
0.64104
 30
0.0
 10
-0.7103600000000001
 20
0.64104
 30
0.0
 10
-0.6328300000000001
 20
0.6448100000000001
 30
0.0
 10
-0.6328300000000001
 20
0.6448100000000001
 30
0.0
 10
-0.6328300000000001
 20
0.6448100000000001
 30
0.0
 10
-0.6328300000000001
 20
0.6448100000000001
 30
0.0
 10
-0.61014
 20
0.8112099999999999
 30
0.0
 10
-0.61014
 20
0.8112099999999999
 30
0.0
  0
SPLINE
  5
42
330
1F
100
AcDbEntity
  8
Ebene 1
 62
   250
100
AcDbSpline
210
0.0
220
0.0
230
1.0
 70
    11
 71
     3
 72
    48
 73
    44
 74
     0
 42
0.0000000001
 43
0.0000000001
 40
0.0
 40
0.0
 40
0.0
 40
0.0
 40
0.0833333333333333
 40
0.0833333333333333
 40
0.0833333333333333
 40
0.0833333333333333
 40
0.1666666666666667
 40
0.1666666666666667
 40
0.1666666666666667
 40
0.1666666666666667
 40
0.25
 40
0.25
 40
0.25
 40
0.25
 40
0.3333333333333333
 40
0.3333333333333333
 40
0.3333333333333333
 40
0.3333333333333333
 40
0.4166666666666667
 40
0.4166666666666667
 40
0.4166666666666667
 40
0.4166666666666667
 40
0.5
 40
0.5
 40
0.5
 40
0.5
 40
0.5833333333333334
 40
0.5833333333333334
 40
0.5833333333333334
 40
0.5833333333333334
 40
0.6666666666666666
 40
0.6666666666666666
 40
0.6666666666666666
 40
0.6666666666666666
 40
0.75
 40
0.75
 40
0.75
 40
0.75
 40
0.8333333333333333
 40
0.8333333333333333
 40
0.8333333333333333
 40
0.8333333333333333
 40
1.0
 40
1.0
 40
1.0
 40
1.0
 10
0.26527
 20
0.2761
 30
0.0
 10
0.26527
 20
0.2761
 30
0.0
 10
0.26527
 20
0.2761
 30
0.0
 10
0.26527
 20
0.2761
 30
0.0
 10
0.26527
 20
0.2761
 30
0.0
 10
0.26527
 20
0.46708
 30
0.0
 10
0.10638
 20
0.5238000000000001
 30
0.0
 10
-0.05808
 20
0.5238000000000001
 30
0.0
 10
-0.05808
 20
0.5238000000000001
 30
0.0
 10
-0.05808
 20
0.5238000000000001
 30
0.0
 10
-0.21504
 20
0.5238000000000001
 30
0.0
 10
-0.21504
 20
0.5238000000000001
 30
0.0
 10
-0.21504
 20
0.5238000000000001
 30
0.0
 10
-0.41925
 20
0.5238000000000001
 30
0.0
 10
-0.6064500000000001
 20
0.42169
 30
0.0
 10
-0.6367000000000001
 20
0.20424
 30
0.0
 10
-0.6367000000000001
 20
0.20424
 30
0.0
 10
-0.6556100000000001
 20
0.07188
 30
0.0
 10
-0.6726300000000001
 20
-0.06235
 30
0.0
 10
-0.6915300000000001
 20
-0.19471
 30
0.0
 10
-0.6915300000000001
 20
-0.19471
 30
0.0
 10
-0.6953199999999999
 20
-0.21742
 30
0.0
 10
-0.6972100000000001
 20
-0.24201
 30
0.0
 10
-0.6972100000000001
 20
-0.26468
 30
0.0
 10
-0.6972100000000001
 20
-0.26468
 30
0.0
 10
-0.6972100000000001
 20
-0.47835
 30
0.0
 10
-0.52892
 20
-0.5199600000000001
 30
0.0
 10
-0.34928
 20
-0.5199600000000001
 30
0.0
 10
-0.34928
 20
-0.5199600000000001
 30
0.0
 10
-0.34928
 20
-0.5199600000000001
 30
0.0
 10
-0.22827
 20
-0.5199600000000001
 30
0.0
 10
-0.22827
 20
-0.5199600000000001
 30
0.0
 10
-0.22827
 20
-0.5199600000000001
 30
0.0
 10
0.0062
 20
-0.5199600000000001
 30
0.0
 10
0.16694
 20
-0.4443100000000001
 30
0.0
 10
0.20284
 20
-0.19471
 30
0.0
 10
0.20284
 20
-0.19471
 30
0.0
 10
0.22172
 20
-0.0567
 30
0.0
 10
0.24253
 20
0.08323
 30
0.0
 10
0.2614800000000001
 20
0.22125
 30
0.0
 10
0.2614800000000001
 20
0.22125
 30
0.0
 10
0.26334
 20
0.24017
 30
0.0
 10
0.26527
 20
0.25719
 30
0.0
 10
0.26527
 20
0.2761
 30
0.0
  0
SPLINE
  5
43
330
1F
100
AcDbEntity
  8
Ebene 1
 62
   250
100
AcDbSpline
210
0.0
220
0.0
230
1.0
 70
    11
 71
     3
 72
    48
 73
    44
 74
     0
 42
0.0000000001
 43
0.0000000001
 40
0.0
 40
0.0
 40
0.0
 40
0.0
 40
0.0833333333333333
 40
0.0833333333333333
 40
0.0833333333333333
 40
0.0833333333333333
 40
0.1666666666666667
 40
0.1666666666666667
 40
0.1666666666666667
 40
0.1666666666666667
 40
0.25
 40
0.25
 40
0.25
 40
0.25
 40
0.3333333333333333
 40
0.3333333333333333
 40
0.3333333333333333
 40
0.3333333333333333
 40
0.4166666666666667
 40
0.4166666666666667
 40
0.4166666666666667
 40
0.4166666666666667
 40
0.5
 40
0.5
 40
0.5
 40
0.5
 40
0.5833333333333334
 40
0.5833333333333334
 40
0.5833333333333334
 40
0.5833333333333334
 40
0.6666666666666666
 40
0.6666666666666666
 40
0.6666666666666666
 40
0.6666666666666666
 40
0.75
 40
0.75
 40
0.75
 40
0.75
 40
0.8333333333333333
 40
0.8333333333333333
 40
0.8333333333333333
 40
0.8333333333333333
 40
1.0
 40
1.0
 40
1.0
 40
1.0
 10
-0.01271
 20
0.23261
 30
0.0
 10
-0.01271
 20
0.23261
 30
0.0
 10
-0.01271
 20
0.23261
 30
0.0
 10
-0.01271
 20
0.23261
 30
0.0
 10
-0.01271
 20
0.23261
 30
0.0
 10
-0.01271
 20
0.23261
 30
0.0
 10
-0.07889
 20
-0.22875
 30
0.0
 10
-0.07889
 20
-0.22875
 30
0.0
 10
-0.07889
 20
-0.22875
 30
0.0
 10
-0.08834
 20
-0.29683
 30
0.0
 10
-0.1375
 20
-0.32332
 30
0.0
 10
-0.20179
 20
-0.32332
 30
0.0
 10
-0.20179
 20
-0.32332
 30
0.0
 10
-0.20179
 20
-0.32332
 30
0.0
 10
-0.32282
 20
-0.32332
 30
0.0
 10
-0.32282
 20
-0.32332
 30
0.0
 10
-0.32282
 20
-0.32332
 30
0.0
 10
-0.37387
 20
-0.32332
 30
0.0
 10
-0.42114
 20
-0.3082
 30
0.0
 10
-0.42114
 20
-0.24766
 30
0.0
 10
-0.42114
 20
-0.24766
 30
0.0
 10
-0.42114
 20
-0.24201
 30
0.0
 10
-0.42114
 20
-0.23443
 30
0.0
 10
-0.42114
 20
-0.22875
 30
0.0
 10
-0.42114
 20
-0.22875
 30
0.0
 10
-0.42114
 20
-0.22875
 30
0.0
 10
-0.35496
 20
0.23261
 30
0.0
 10
-0.35496
 20
0.23261
 30
0.0
 10
-0.35496
 20
0.23261
 30
0.0
 10
-0.3455
 20
0.30256
 30
0.0
 10
-0.29824
 20
0.32714
 30
0.0
 10
-0.23206
 20
0.32714
 30
0.0
 10
-0.23206
 20
0.32714
 30
0.0
 10
-0.23206
 20
0.32714
 30
0.0
 10
-0.10913
 20
0.32714
 30
0.0
 10
-0.10913
 20
0.32714
 30
0.0
 10
-0.10913
 20
0.32714
 30
0.0
 10
-0.05808
 20
0.32714
 30
0.0
 10
-0.01271
 20
0.31391
 30
0.0
 10
-0.01271
 20
0.2534
 30
0.0
 10
-0.01271
 20
0.2534
 30
0.0
 10
-0.01271
 20
0.24584
 30
0.0
 10
-0.01081
 20
0.24017
 30
0.0
 10
-0.01271
 20
0.23261
 30
0.0
  0
SPLINE
  5
44
330
1F
100
AcDbEntity
  8
Ebene 1
 62
   250
100
AcDbSpline
210
0.0
220
0.0
230
1.0
 70
    11
 71
     3
 72
    48
 73
    44
 74
     0
 42
0.0000000001
 43
0.0000000001
 40
0.0
 40
0.0
 40
0.0
 40
0.0
 40
0.0833333333333333
 40
0.0833333333333333
 40
0.0833333333333333
 40
0.0833333333333333
 40
0.1666666666666667
 40
0.1666666666666667
 40
0.1666666666666667
 40
0.1666666666666667
 40
0.25
 40
0.25
 40
0.25
 40
0.25
 40
0.3333333333333333
 40
0.3333333333333333
 40
0.3333333333333333
 40
0.3333333333333333
 40
0.4166666666666667
 40
0.4166666666666667
 40
0.4166666666666667
 40
0.4166666666666667
 40
0.5
 40
0.5
 40
0.5
 40
0.5
 40
0.5833333333333334
 40
0.5833333333333334
 40
0.5833333333333334
 40
0.5833333333333334
 40
0.6666666666666666
 40
0.6666666666666666
 40
0.6666666666666666
 40
0.6666666666666666
 40
0.75
 40
0.75
 40
0.75
 40
0.75
 40
0.8333333333333333
 40
0.8333333333333333
 40
0.8333333333333333
 40
0.8333333333333333
 40
1.0
 40
1.0
 40
1.0
 40
1.0
 10
1.3903
 20
0.2761
 30
0.0
 10
1.3903
 20
0.2761
 30
0.0
 10
1.3903
 20
0.2761
 30
0.0
 10
1.3903
 20
0.2761
 30
0.0
 10
1.3903
 20
0.2761
 30
0.0
 10
1.3903
 20
0.46708
 30
0.0
 10
1.231479999999999
 20
0.5238000000000001
 30
0.0
 10
1.066939999999999
 20
0.5238000000000001
 30
0.0
 10
1.066939999999999
 20
0.5238000000000001
 30
0.0
 10
1.066939999999999
 20
0.5238000000000001
 30
0.0
 10
0.91005
 20
0.5238000000000001
 30
0.0
 10
0.91005
 20
0.5238000000000001
 30
0.0
 10
0.91005
 20
0.5238000000000001
 30
0.0
 10
0.7058300000000001
 20
0.5238000000000001
 30
0.0
 10
0.51862
 20
0.42169
 30
0.0
 10
0.48837
 20
0.20424
 30
0.0
 10
0.48837
 20
0.20424
 30
0.0
 10
0.4694200000000001
 20
0.07188
 30
0.0
 10
0.4524
 20
-0.06235
 30
0.0
 10
0.4335300000000001
 20
-0.19471
 30
0.0
 10
0.4335300000000001
 20
-0.19471
 30
0.0
 10
0.42973
 20
-0.21742
 30
0.0
 10
0.4278800000000001
 20
-0.24201
 30
0.0
 10
0.4278800000000001
 20
-0.26468
 30
0.0
 10
0.4278800000000001
 20
-0.26468
 30
0.0
 10
0.4278800000000001
 20
-0.47835
 30
0.0
 10
0.5961300000000001
 20
-0.5199600000000001
 30
0.0
 10
0.77576
 20
-0.5199600000000001
 30
0.0
 10
0.77576
 20
-0.5199600000000001
 30
0.0
 10
0.77576
 20
-0.5199600000000001
 30
0.0
 10
0.8968200000000001
 20
-0.5199600000000001
 30
0.0
 10
0.8968200000000001
 20
-0.5199600000000001
 30
0.0
 10
0.8968200000000001
 20
-0.5199600000000001
 30
0.0
 10
1.131299999999999
 20
-0.5199600000000001
 30
0.0
 10
1.29197
 20
-0.4443100000000001
 30
0.0
 10
1.327939999999999
 20
-0.19471
 30
0.0
 10
1.327939999999999
 20
-0.19471
 30
0.0
 10
1.34682
 20
-0.0567
 30
0.0
 10
1.367629999999999
 20
0.08323
 30
0.0
 10
1.38651
 20
0.22125
 30
0.0
 10
1.38651
 20
0.22125
 30
0.0
 10
1.388439999999999
 20
0.24017
 30
0.0
 10
1.3903
 20
0.25719
 30
0.0
 10
1.3903
 20
0.2761
 30
0.0
  0
SPLINE
  5
45
330
1F
100
AcDbEntity
  8
Ebene 1
 62
   250
100
AcDbSpline
210
0.0
220
0.0
230
1.0
 70
    11
 71
     3
 72
    48
 73
    44
 74
     0
 42
0.0000000001
 43
0.0000000001
 40
0.0
 40
0.0
 40
0.0
 40
0.0
 40
0.0833333333333333
 40
0.0833333333333333
 40
0.0833333333333333
 40
0.0833333333333333
 40
0.1666666666666667
 40
0.1666666666666667
 40
0.1666666666666667
 40
0.1666666666666667
 40
0.25
 40
0.25
 40
0.25
 40
0.25
 40
0.3333333333333333
 40
0.3333333333333333
 40
0.3333333333333333
 40
0.3333333333333333
 40
0.4166666666666667
 40
0.4166666666666667
 40
0.4166666666666667
 40
0.4166666666666667
 40
0.5
 40
0.5
 40
0.5
 40
0.5
 40
0.5833333333333334
 40
0.5833333333333334
 40
0.5833333333333334
 40
0.5833333333333334
 40
0.6666666666666666
 40
0.6666666666666666
 40
0.6666666666666666
 40
0.6666666666666666
 40
0.75
 40
0.75
 40
0.75
 40
0.75
 40
0.8333333333333333
 40
0.8333333333333333
 40
0.8333333333333333
 40
0.8333333333333333
 40
1.0
 40
1.0
 40
1.0
 40
1.0
 10
1.112349999999999
 20
0.23261
 30
0.0
 10
1.112349999999999
 20
0.23261
 30
0.0
 10
1.112349999999999
 20
0.23261
 30
0.0
 10
1.112349999999999
 20
0.23261
 30
0.0
 10
1.112349999999999
 20
0.23261
 30
0.0
 10
1.112349999999999
 20
0.23261
 30
0.0
 10
1.0462
 20
-0.22875
 30
0.0
 10
1.0462
 20
-0.22875
 30
0.0
 10
1.0462
 20
-0.22875
 30
0.0
 10
1.036689999999999
 20
-0.29683
 30
0.0
 10
0.98756
 20
-0.32332
 30
0.0
 10
0.9232799999999999
 20
-0.32332
 30
0.0
 10
0.9232799999999999
 20
-0.32332
 30
0.0
 10
0.9232799999999999
 20
-0.32332
 30
0.0
 10
0.8022199999999999
 20
-0.32332
 30
0.0
 10
0.8022199999999999
 20
-0.32332
 30
0.0
 10
0.8022199999999999
 20
-0.32332
 30
0.0
 10
0.7511600000000001
 20
-0.32332
 30
0.0
 10
0.7039
 20
-0.3082
 30
0.0
 10
0.7039
 20
-0.24766
 30
0.0
 10
0.7039
 20
-0.24766
 30
0.0
 10
0.7039
 20
-0.24201
 30
0.0
 10
0.7039
 20
-0.23443
 30
0.0
 10
0.7039
 20
-0.22875
 30
0.0
 10
0.7039
 20
-0.22875
 30
0.0
 10
0.7039
 20
-0.22875
 30
0.0
 10
0.7701100000000001
 20
0.23261
 30
0.0
 10
0.7701100000000001
 20
0.23261
 30
0.0
 10
0.7701100000000001
 20
0.23261
 30
0.0
 10
0.77955
 20
0.30256
 30
0.0
 10
0.82682
 20
0.32714
 30
0.0
 10
0.8930299999999999
 20
0.32714
 30
0.0
 10
0.8930299999999999
 20
0.32714
 30
0.0
 10
0.8930299999999999
 20
0.32714
 30
0.0
 10
1.015949999999999
 20
0.32714
 30
0.0
 10
1.015949999999999
 20
0.32714
 30
0.0
 10
1.015949999999999
 20
0.32714
 30
0.0
 10
1.066939999999999
 20
0.32714
 30
0.0
 10
1.112349999999999
 20
0.31391
 30
0.0
 10
1.112349999999999
 20
0.2534
 30
0.0
 10
1.112349999999999
 20
0.2534
 30
0.0
 10
1.112349999999999
 20
0.24584
 30
0.0
 10
1.114279999999999
 20
0.24017
 30
0.0
 10
1.112349999999999
 20
0.23261
 30
0.0
  0
SPLINE
  5
46
330
1F
100
AcDbEntity
  8
Ebene 1
 62
   250
100
AcDbSpline
210
0.0
220
0.0
230
1.0
 70
    11
 71
     3
 72
    76
 73
    72
 74
     0
 42
0.0000000001
 43
0.0000000001
 40
0.0
 40
0.0
 40
0.0
 40
0.0
 40
0.0526315789473684
 40
0.0526315789473684
 40
0.0526315789473684
 40
0.0526315789473684
 40
0.1052631578947368
 40
0.1052631578947368
 40
0.1052631578947368
 40
0.1052631578947368
 40
0.1578947368421053
 40
0.1578947368421053
 40
0.1578947368421053
 40
0.1578947368421053
 40
0.2105263157894737
 40
0.2105263157894737
 40
0.2105263157894737
 40
0.2105263157894737
 40
0.2631578947368421
 40
0.2631578947368421
 40
0.2631578947368421
 40
0.2631578947368421
 40
0.3157894736842105
 40
0.3157894736842105
 40
0.3157894736842105
 40
0.3157894736842105
 40
0.3684210526315789
 40
0.3684210526315789
 40
0.3684210526315789
 40
0.3684210526315789
 40
0.4210526315789473
 40
0.4210526315789473
 40
0.4210526315789473
 40
0.4210526315789473
 40
0.4736842105263159
 40
0.4736842105263159
 40
0.4736842105263159
 40
0.4736842105263159
 40
0.5263157894736842
 40
0.5263157894736842
 40
0.5263157894736842
 40
0.5263157894736842
 40
0.5789473684210527
 40
0.5789473684210527
 40
0.5789473684210527
 40
0.5789473684210527
 40
0.6315789473684211
 40
0.6315789473684211
 40
0.6315789473684211
 40
0.6315789473684211
 40
0.6842105263157895
 40
0.6842105263157895
 40
0.6842105263157895
 40
0.6842105263157895
 40
0.7368421052631579
 40
0.7368421052631579
 40
0.7368421052631579
 40
0.7368421052631579
 40
0.7894736842105264
 40
0.7894736842105264
 40
0.7894736842105264
 40
0.7894736842105264
 40
0.8421052631578946
 40
0.8421052631578946
 40
0.8421052631578946
 40
0.8421052631578946
 40
0.8947368421052631
 40
0.8947368421052631
 40
0.8947368421052631
 40
0.8947368421052631
 40
1.0
 40
1.0
 40
1.0
 40
1.0
 10
2.59477
 20
0.8906399999999999
 30
0.0
 10
2.59477
 20
0.8906399999999999
 30
0.0
 10
2.59477
 20
0.8906399999999999
 30
0.0
 10
2.59477
 20
0.8906399999999999
 30
0.0
 10
2.59477
 20
0.8906399999999999
 30
0.0
 10
2.59477
 20
0.8906399999999999
 30
0.0
 10
2.19769
 20
0.88685
 30
0.0
 10
2.19769
 20
0.88685
 30
0.0
 10
2.19769
 20
0.88685
 30
0.0
 10
2.19769
 20
0.88685
 30
0.0
 10
2.175019999999999
 20
0.7204500000000001
 30
0.0
 10
2.175019999999999
 20
0.7204500000000001
 30
0.0
 10
2.175019999999999
 20
0.7204500000000001
 30
0.0
 10
2.175019999999999
 20
0.7204500000000001
 30
0.0
 10
2.296009999999999
 20
0.7204500000000001
 30
0.0
 10
2.296009999999999
 20
0.7204500000000001
 30
0.0
 10
2.296009999999999
 20
0.7204500000000001
 30
0.0
 10
2.296009999999999
 20
0.7204500000000001
 30
0.0
 10
2.26012
 20
0.48787
 30
0.0
 10
2.26012
 20
0.48787
 30
0.0
 10
2.26012
 20
0.48787
 30
0.0
 10
2.18067
 20
0.50678
 30
0.0
 10
2.065329999999999
 20
0.5238000000000001
 30
0.0
 10
1.99725
 20
0.5238000000000001
 30
0.0
 10
1.99725
 20
0.5238000000000001
 30
0.0
 10
1.99725
 20
0.5238000000000001
 30
0.0
 10
1.953779999999999
 20
0.5238000000000001
 30
0.0
 10
1.953779999999999
 20
0.5238000000000001
 30
0.0
 10
1.953779999999999
 20
0.5238000000000001
 30
0.0
 10
1.78359
 20
0.5238000000000001
 30
0.0
 10
1.651229999999999
 20
0.42736
 30
0.0
 10
1.6267
 20
0.25529
 30
0.0
 10
1.6267
 20
0.25529
 30
0.0
 10
1.6267
 20
0.25529
 30
0.0
 10
1.560489999999999
 20
-0.225
 30
0.0
 10
1.560489999999999
 20
-0.225
 30
0.0
 10
1.560489999999999
 20
-0.225
 30
0.0
 10
1.55862
 20
-0.24387
 30
0.0
 10
1.552909999999999
 20
-0.29117
 30
0.0
 10
1.552909999999999
 20
-0.31005
 30
0.0
 10
1.552909999999999
 20
-0.31005
 30
0.0
 10
1.552909999999999
 20
-0.44999
 30
0.0
 10
1.639929999999999
 20
-0.5199600000000001
 30
0.0
 10
1.81012
 20
-0.5199600000000001
 30
0.0
 10
1.81012
 20
-0.5199600000000001
 30
0.0
 10
1.81012
 20
-0.5199600000000001
 30
0.0
 10
1.88384
 20
-0.5199600000000001
 30
0.0
 10
1.88384
 20
-0.5199600000000001
 30
0.0
 10
1.88384
 20
-0.5199600000000001
 30
0.0
 10
2.00105
 20
-0.5199600000000001
 30
0.0
 10
2.059679999999999
 20
-0.49537
 30
0.0
 10
2.14663
 20
-0.41975
 30
0.0
 10
2.14663
 20
-0.41975
 30
0.0
 10
2.14663
 20
-0.41975
 30
0.0
 10
2.14477
 20
-0.49726
 30
0.0
 10
2.14477
 20
-0.49726
 30
0.0
 10
2.14477
 20
-0.49726
 30
0.0
 10
2.14477
 20
-0.49726
 30
0.0
 10
2.51919
 20
-0.49726
 30
0.0
 10
2.51919
 20
-0.49726
 30
0.0
 10
2.51919
 20
-0.49726
 30
0.0
 10
2.51919
 20
-0.49726
 30
0.0
 10
2.543719999999999
 20
-0.33086
 30
0.0
 10
2.543719999999999
 20
-0.33086
 30
0.0
 10
2.543719999999999
 20
-0.33086
 30
0.0
 10
2.543719999999999
 20
-0.33086
 30
0.0
 10
2.42465
 20
-0.32897
 30
0.0
 10
2.42465
 20
-0.32897
 30
0.0
 10
2.42465
 20
-0.32897
 30
0.0
 10
2.42465
 20
-0.32897
 30
0.0
 10
2.59477
 20
0.8906399999999999
 30
0.0
 10
2.59477
 20
0.8906399999999999
 30
0.0
  0
SPLINE
  5
47
330
1F
100
AcDbEntity
  8
Ebene 1
 62
   250
100
AcDbSpline
210
0.0
220
0.0
230
1.0
 70
    11
 71
     3
 72
    44
 73
    40
 74
     0
 42
0.0000000001
 43
0.0000000001
 40
0.0
 40
0.0
 40
0.0
 40
0.0
 40
0.0909090909090909
 40
0.0909090909090909
 40
0.0909090909090909
 40
0.0909090909090909
 40
0.1818181818181818
 40
0.1818181818181818
 40
0.1818181818181818
 40
0.1818181818181818
 40
0.2727272727272727
 40
0.2727272727272727
 40
0.2727272727272727
 40
0.2727272727272727
 40
0.3636363636363636
 40
0.3636363636363636
 40
0.3636363636363636
 40
0.3636363636363636
 40
0.4545454545454545
 40
0.4545454545454545
 40
0.4545454545454545
 40
0.4545454545454545
 40
0.5454545454545455
 40
0.5454545454545455
 40
0.5454545454545455
 40
0.5454545454545455
 40
0.6363636363636364
 40
0.6363636363636364
 40
0.6363636363636364
 40
0.6363636363636364
 40
0.7272727272727274
 40
0.7272727272727274
 40
0.7272727272727274
 40
0.7272727272727274
 40
0.8181818181818181
 40
0.8181818181818181
 40
0.8181818181818181
 40
0.8181818181818181
 40
1.0
 40
1.0
 40
1.0
 40
1.0
 10
2.239309999999999
 20
0.31391
 30
0.0
 10
2.239309999999999
 20
0.31391
 30
0.0
 10
2.239309999999999
 20
0.31391
 30
0.0
 10
2.239309999999999
 20
0.31391
 30
0.0
 10
2.239309999999999
 20
0.31391
 30
0.0
 10
2.239309999999999
 20
0.31391
 30
0.0
 10
2.157999999999999
 20
-0.26468
 30
0.0
 10
2.157999999999999
 20
-0.26468
 30
0.0
 10
2.157999999999999
 20
-0.26468
 30
0.0
 10
2.1126
 20
-0.29683
 30
0.0
 10
2.059679999999999
 20
-0.31574
 30
0.0
 10
2.00483
 20
-0.31574
 30
0.0
 10
2.00483
 20
-0.31574
 30
0.0
 10
2.00483
 20
-0.31574
 30
0.0
 10
1.91595
 20
-0.31574
 30
0.0
 10
1.91595
 20
-0.31574
 30
0.0
 10
1.91595
 20
-0.31574
 30
0.0
 10
1.86682
 20
-0.31574
 30
0.0
 10
1.832779999999999
 20
-0.3063
 30
0.0
 10
1.832779999999999
 20
-0.25145
 30
0.0
 10
1.832779999999999
 20
-0.25145
 30
0.0
 10
1.832779999999999
 20
-0.24201
 30
0.0
 10
1.834649999999999
 20
-0.23254
 30
0.0
 10
1.83657
 20
-0.2231
 30
0.0
 10
1.83657
 20
-0.2231
 30
0.0
 10
1.83657
 20
-0.2231
 30
0.0
 10
1.89707
 20
0.21559
 30
0.0
 10
1.89707
 20
0.21559
 30
0.0
 10
1.89707
 20
0.21559
 30
0.0
 10
1.90844
 20
0.29312
 30
0.0
 10
1.936759999999999
 20
0.32714
 30
0.0
 10
2.018059999999999
 20
0.32714
 30
0.0
 10
2.018059999999999
 20
0.32714
 30
0.0
 10
2.018059999999999
 20
0.32714
 30
0.0
 10
2.09186
 20
0.32714
 30
0.0
 10
2.09186
 20
0.32714
 30
0.0
 10
2.09186
 20
0.32714
 30
0.0
 10
2.140989999999999
 20
0.32714
 30
0.0
 10
2.195829999999999
 20
0.3177
 30
0.0
 10
2.239309999999999
 20
0.31391
 30
0.0
  0
SPLINE
  5
48
330
1F
100
AcDbEntity
  8
Ebene 1
 62
   250
100
AcDbSpline
210
0.0
220
0.0
230
1.0
 70
    11
 71
     3
 72
    84
 73
    80
 74
     0
 42
0.0000000001
 43
0.0000000001
 40
0.0
 40
0.0
 40
0.0
 40
0.0
 40
0.0476190476190476
 40
0.0476190476190476
 40
0.0476190476190476
 40
0.0476190476190476
 40
0.0952380952380952
 40
0.0952380952380952
 40
0.0952380952380952
 40
0.0952380952380952
 40
0.1428571428571428
 40
0.1428571428571428
 40
0.1428571428571428
 40
0.1428571428571428
 40
0.1904761904761905
 40
0.1904761904761905
 40
0.1904761904761905
 40
0.1904761904761905
 40
0.2380952380952381
 40
0.2380952380952381
 40
0.2380952380952381
 40
0.2380952380952381
 40
0.2857142857142857
 40
0.2857142857142857
 40
0.2857142857142857
 40
0.2857142857142857
 40
0.3333333333333333
 40
0.3333333333333333
 40
0.3333333333333333
 40
0.3333333333333333
 40
0.3809523809523809
 40
0.3809523809523809
 40
0.3809523809523809
 40
0.3809523809523809
 40
0.4285714285714285
 40
0.4285714285714285
 40
0.4285714285714285
 40
0.4285714285714285
 40
0.4761904761904762
 40
0.4761904761904762
 40
0.4761904761904762
 40
0.4761904761904762
 40
0.5238095238095239
 40
0.5238095238095239
 40
0.5238095238095239
 40
0.5238095238095239
 40
0.5714285714285714
 40
0.5714285714285714
 40
0.5714285714285714
 40
0.5714285714285714
 40
0.6190476190476191
 40
0.6190476190476191
 40
0.6190476190476191
 40
0.6190476190476191
 40
0.6666666666666666
 40
0.6666666666666666
 40
0.6666666666666666
 40
0.6666666666666666
 40
0.7142857142857144
 40
0.7142857142857144
 40
0.7142857142857144
 40
0.7142857142857144
 40
0.7619047619047619
 40
0.7619047619047619
 40
0.7619047619047619
 40
0.7619047619047619
 40
0.8095238095238094
 40
0.8095238095238094
 40
0.8095238095238094
 40
0.8095238095238094
 40
0.8571428571428571
 40
0.8571428571428571
 40
0.8571428571428571
 40
0.8571428571428571
 40
0.9047619047619047
 40
0.9047619047619047
 40
0.9047619047619047
 40
0.9047619047619047
 40
1.0
 40
1.0
 40
1.0
 40
1.0
 10
3.708499999999999
 20
0.32147
 30
0.0
 10
3.708499999999999
 20
0.32147
 30
0.0
 10
3.708499999999999
 20
0.32147
 30
0.0
 10
3.708499999999999
 20
0.32147
 30
0.0
 10
3.708499999999999
 20
0.32147
 30
0.0
 10
3.708499999999999
 20
0.32147
 30
0.0
 10
3.708499999999999
 20
0.49733
 30
0.0
 10
3.708499999999999
 20
0.49733
 30
0.0
 10
3.708499999999999
 20
0.49733
 30
0.0
 10
3.708499999999999
 20
0.49733
 30
0.0
 10
3.339809999999999
 20
0.48977
 30
0.0
 10
3.339809999999999
 20
0.48977
 30
0.0
 10
3.339809999999999
 20
0.48977
 30
0.0
 10
3.339809999999999
 20
0.48977
 30
0.0
 10
3.315209999999999
 20
0.32714
 30
0.0
 10
3.315209999999999
 20
0.32714
 30
0.0
 10
3.315209999999999
 20
0.32714
 30
0.0
 10
3.315209999999999
 20
0.32714
 30
0.0
 10
3.45894
 20
0.32147
 30
0.0
 10
3.45894
 20
0.32147
 30
0.0
 10
3.45894
 20
0.32147
 30
0.0
 10
3.45894
 20
0.32147
 30
0.0
 10
3.19801
 20
-0.24956
 30
0.0
 10
3.19801
 20
-0.24956
 30
0.0
 10
3.19801
 20
-0.24956
 30
0.0
 10
3.19801
 20
-0.24956
 30
0.0
 10
3.19229
 20
-0.24956
 30
0.0
 10
3.19229
 20
-0.24956
 30
0.0
 10
3.19229
 20
-0.24956
 30
0.0
 10
3.19229
 20
-0.24956
 30
0.0
 10
3.08639
 20
0.32147
 30
0.0
 10
3.08639
 20
0.32147
 30
0.0
 10
3.08639
 20
0.32147
 30
0.0
 10
3.08639
 20
0.32147
 30
0.0
 10
3.08639
 20
0.49733
 30
0.0
 10
3.08639
 20
0.49733
 30
0.0
 10
3.08639
 20
0.49733
 30
0.0
 10
3.08639
 20
0.49733
 30
0.0
 10
2.74229
 20
0.48977
 30
0.0
 10
2.74229
 20
0.48977
 30
0.0
 10
2.74229
 20
0.48977
 30
0.0
 10
2.74229
 20
0.48977
 30
0.0
 10
2.71769
 20
0.32714
 30
0.0
 10
2.71769
 20
0.32714
 30
0.0
 10
2.71769
 20
0.32714
 30
0.0
 10
2.71769
 20
0.32714
 30
0.0
 10
2.82739
 20
0.32147
 30
0.0
 10
2.82739
 20
0.32147
 30
0.0
 10
2.82739
 20
0.32147
 30
0.0
 10
2.82739
 20
0.32147
 30
0.0
 10
3.00322
 20
-0.5237500000000001
 30
0.0
 10
3.00322
 20
-0.5237500000000001
 30
0.0
 10
3.00322
 20
-0.5237500000000001
 30
0.0
 10
3.00322
 20
-0.5237500000000001
 30
0.0
 10
2.98807
 20
-0.56155
 30
0.0
 10
2.98807
 20
-0.56155
 30
0.0
 10
2.98807
 20
-0.56155
 30
0.0
 10
2.961609999999999
 20
-0.6258300000000001
 30
0.0
 10
2.91248
 20
-0.6806800000000001
 30
0.0
 10
2.83117
 20
-0.6806800000000001
 30
0.0
 10
2.83117
 20
-0.6806800000000001
 30
0.0
 10
2.83117
 20
-0.6806800000000001
 30
0.0
 10
2.70067
 20
-0.6806800000000001
 30
0.0
 10
2.70067
 20
-0.6806800000000001
 30
0.0
 10
2.70067
 20
-0.6806800000000001
 30
0.0
 10
2.70067
 20
-0.6806800000000001
 30
0.0
 10
2.67229
 20
-0.88869
 30
0.0
 10
2.67229
 20
-0.88869
 30
0.0
 10
2.67229
 20
-0.88869
 30
0.0
 10
2.67229
 20
-0.88869
 30
0.0
 10
2.71769
 20
-0.9000299999999999
 30
0.0
 10
2.757379999999999
 20
-0.9000299999999999
 30
0.0
 10
2.757379999999999
 20
-0.9000299999999999
 30
0.0
 10
2.971049999999999
 20
-0.9000299999999999
 30
0.0
 10
3.103409999999999
 20
-0.84897
 30
0.0
 10
3.205519999999999
 20
-0.65232
 30
0.0
 10
3.205519999999999
 20
-0.65232
 30
0.0
 10
3.205519999999999
 20
-0.65232
 30
0.0
 10
3.708499999999999
 20
0.32147
 30
0.0
 10
3.708499999999999
 20
0.32147
 30
0.0
  0
SPLINE
  5
49
330
1F
100
AcDbEntity
  8
Ebene 1
 62
   250
100
AcDbSpline
210
0.0
220
0.0
230
1.0
 70
    11
 71
     3
 72
    80
 73
    76
 74
     0
 42
0.0000000001
 43
0.0000000001
 40
0.0
 40
0.0
 40
0.0
 40
0.0
 40
0.05
 40
0.05
 40
0.05
 40
0.05
 40
0.1
 40
0.1
 40
0.1
 40
0.1
 40
0.15
 40
0.15
 40
0.15
 40
0.15
 40
0.2
 40
0.2
 40
0.2
 40
0.2
 40
0.25
 40
0.25
 40
0.25
 40
0.25
 40
0.3
 40
0.3
 40
0.3
 40
0.3
 40
0.35
 40
0.35
 40
0.35
 40
0.35
 40
0.4
 40
0.4
 40
0.4
 40
0.4
 40
0.45
 40
0.45
 40
0.45
 40
0.45
 40
0.5
 40
0.5
 40
0.5
 40
0.5
 40
0.55
 40
0.55
 40
0.55
 40
0.55
 40
0.6
 40
0.6
 40
0.6
 40
0.6
 40
0.65
 40
0.65
 40
0.65
 40
0.65
 40
0.7
 40
0.7
 40
0.7
 40
0.7
 40
0.75
 40
0.75
 40
0.75
 40
0.75
 40
0.8
 40
0.8
 40
0.8
 40
0.8
 40
0.85
 40
0.85
 40
0.85
 40
0.85
 40
0.9
 40
0.9
 40
0.9
 40
0.9
 40
1.0
 40
1.0
 40
1.0
 40
1.0
 10
5.13994
 20
0.8112099999999999
 30
0.0
 10
5.13994
 20
0.8112099999999999
 30
0.0
 10
5.13994
 20
0.8112099999999999
 30
0.0
 10
5.13994
 20
0.8112099999999999
 30
0.0
 10
5.13994
 20
0.8112099999999999
 30
0.0
 10
5.13994
 20
0.8112099999999999
 30
0.0
 10
4.754159999999999
 20
0.8112099999999999
 30
0.0
 10
4.754159999999999
 20
0.8112099999999999
 30
0.0
 10
4.754159999999999
 20
0.8112099999999999
 30
0.0
 10
4.754159999999999
 20
0.8112099999999999
 30
0.0
 10
4.739069999999999
 20
0.70532
 30
0.0
 10
4.739069999999999
 20
0.70532
 30
0.0
 10
4.739069999999999
 20
0.70532
 30
0.0
 10
4.739069999999999
 20
0.70532
 30
0.0
 10
4.890309999999999
 20
0.70532
 30
0.0
 10
4.890309999999999
 20
0.70532
 30
0.0
 10
4.890309999999999
 20
0.70532
 30
0.0
 10
4.890309999999999
 20
0.70532
 30
0.0
 10
4.408129999999999
 20
-0.27791
 30
0.0
 10
4.408129999999999
 20
-0.27791
 30
0.0
 10
4.408129999999999
 20
-0.27791
 30
0.0
 10
4.408129999999999
 20
-0.27791
 30
0.0
 10
4.37223
 20
-0.37437
 30
0.0
 10
4.37223
 20
-0.37437
 30
0.0
 10
4.37223
 20
-0.37437
 30
0.0
 10
4.37223
 20
-0.37437
 30
0.0
 10
4.36845
 20
-0.37437
 30
0.0
 10
4.36845
 20
-0.37437
 30
0.0
 10
4.36845
 20
-0.37437
 30
0.0
 10
4.36845
 20
-0.37437
 30
0.0
 10
4.359009999999999
 20
-0.27791
 30
0.0
 10
4.359009999999999
 20
-0.27791
 30
0.0
 10
4.359009999999999
 20
-0.27791
 30
0.0
 10
4.359009999999999
 20
-0.27791
 30
0.0
 10
4.162359999999999
 20
0.70532
 30
0.0
 10
4.162359999999999
 20
0.70532
 30
0.0
 10
4.162359999999999
 20
0.70532
 30
0.0
 10
4.162359999999999
 20
0.70532
 30
0.0
 10
4.30223
 20
0.70532
 30
0.0
 10
4.30223
 20
0.70532
 30
0.0
 10
4.30223
 20
0.70532
 30
0.0
 10
4.30223
 20
0.70532
 30
0.0
 10
4.31739
 20
0.8112099999999999
 30
0.0
 10
4.31739
 20
0.8112099999999999
 30
0.0
 10
4.31739
 20
0.8112099999999999
 30
0.0
 10
4.31739
 20
0.8112099999999999
 30
0.0
 10
3.93733
 20
0.8112099999999999
 30
0.0
 10
3.93733
 20
0.8112099999999999
 30
0.0
 10
3.93733
 20
0.8112099999999999
 30
0.0
 10
3.93733
 20
0.8112099999999999
 30
0.0
 10
3.922169999999999
 20
0.70532
 30
0.0
 10
3.922169999999999
 20
0.70532
 30
0.0
 10
3.922169999999999
 20
0.70532
 30
0.0
 10
3.922169999999999
 20
0.70532
 30
0.0
 10
4.00919
 20
0.70343
 30
0.0
 10
4.00919
 20
0.70343
 30
0.0
 10
4.00919
 20
0.70343
 30
0.0
 10
4.00919
 20
0.70343
 30
0.0
 10
4.264469999999999
 20
-0.50674
 30
0.0
 10
4.264469999999999
 20
-0.50674
 30
0.0
 10
4.264469999999999
 20
-0.50674
 30
0.0
 10
4.264469999999999
 20
-0.50674
 30
0.0
 10
4.43273
 20
-0.50674
 30
0.0
 10
4.43273
 20
-0.50674
 30
0.0
 10
4.43273
 20
-0.50674
 30
0.0
 10
4.43273
 20
-0.50674
 30
0.0
 10
5.041619999999999
 20
0.70343
 30
0.0
 10
5.041619999999999
 20
0.70343
 30
0.0
 10
5.041619999999999
 20
0.70343
 30
0.0
 10
5.041619999999999
 20
0.70343
 30
0.0
 10
5.12478
 20
0.70532
 30
0.0
 10
5.12478
 20
0.70532
 30
0.0
 10
5.12478
 20
0.70532
 30
0.0
 10
5.12478
 20
0.70532
 30
0.0
 10
5.13994
 20
0.8112099999999999
 30
0.0
 10
5.13994
 20
0.8112099999999999
 30
0.0
  0
SPLINE
  5
4A
330
1F
100
AcDbEntity
  8
Ebene 1
 62
   250
100
AcDbSpline
210
0.0
220
0.0
230
1.0
 70
    11
 71
     3
 72
   108
 73
   104
 74
     0
 42
0.0000000001
 43
0.0000000001
 40
0.0
 40
0.0
 40
0.0
 40
0.0
 40
0.037037037037037
 40
0.037037037037037
 40
0.037037037037037
 40
0.037037037037037
 40
0.0740740740740741
 40
0.0740740740740741
 40
0.0740740740740741
 40
0.0740740740740741
 40
0.1111111111111111
 40
0.1111111111111111
 40
0.1111111111111111
 40
0.1111111111111111
 40
0.1481481481481481
 40
0.1481481481481481
 40
0.1481481481481481
 40
0.1481481481481481
 40
0.1851851851851852
 40
0.1851851851851852
 40
0.1851851851851852
 40
0.1851851851851852
 40
0.2222222222222222
 40
0.2222222222222222
 40
0.2222222222222222
 40
0.2222222222222222
 40
0.2592592592592592
 40
0.2592592592592592
 40
0.2592592592592592
 40
0.2592592592592592
 40
0.2962962962962963
 40
0.2962962962962963
 40
0.2962962962962963
 40
0.2962962962962963
 40
0.3333333333333333
 40
0.3333333333333333
 40
0.3333333333333333
 40
0.3333333333333333
 40
0.3703703703703703
 40
0.3703703703703703
 40
0.3703703703703703
 40
0.3703703703703703
 40
0.4074074074074074
 40
0.4074074074074074
 40
0.4074074074074074
 40
0.4074074074074074
 40
0.4444444444444445
 40
0.4444444444444445
 40
0.4444444444444445
 40
0.4444444444444445
 40
0.4814814814814815
 40
0.4814814814814815
 40
0.4814814814814815
 40
0.4814814814814815
 40
0.5185185185185186
 40
0.5185185185185186
 40
0.5185185185185186
 40
0.5185185185185186
 40
0.5555555555555556
 40
0.5555555555555556
 40
0.5555555555555556
 40
0.5555555555555556
 40
0.5925925925925926
 40
0.5925925925925926
 40
0.5925925925925926
 40
0.5925925925925926
 40
0.6296296296296297
 40
0.6296296296296297
 40
0.6296296296296297
 40
0.6296296296296297
 40
0.6666666666666666
 40
0.6666666666666666
 40
0.6666666666666666
 40
0.6666666666666666
 40
0.7037037037037038
 40
0.7037037037037038
 40
0.7037037037037038
 40
0.7037037037037038
 40
0.7407407407407407
 40
0.7407407407407407
 40
0.7407407407407407
 40
0.7407407407407407
 40
0.7777777777777778
 40
0.7777777777777778
 40
0.7777777777777778
 40
0.7777777777777778
 40
0.8148148148148147
 40
0.8148148148148147
 40
0.8148148148148147
 40
0.8148148148148147
 40
0.8518518518518519
 40
0.8518518518518519
 40
0.8518518518518519
 40
0.8518518518518519
 40
0.8888888888888889
 40
0.8888888888888889
 40
0.8888888888888889
 40
0.8888888888888889
 40
0.9259259259259259
 40
0.9259259259259259
 40
0.9259259259259259
 40
0.9259259259259259
 40
1.0
 40
1.0
 40
1.0
 40
1.0
 10
5.94348
 20
-0.39139
 30
0.0
 10
5.94348
 20
-0.39139
 30
0.0
 10
5.94348
 20
-0.39139
 30
0.0
 10
5.94348
 20
-0.39139
 30
0.0
 10
5.94348
 20
-0.39139
 30
0.0
 10
5.94348
 20
-0.39139
 30
0.0
 10
5.80918
 20
-0.3876
 30
0.0
 10
5.80918
 20
-0.3876
 30
0.0
 10
5.80918
 20
-0.3876
 30
0.0
 10
5.80918
 20
-0.3876
 30
0.0
 10
5.80918
 20
-0.34034
 30
0.0
 10
5.80918
 20
-0.34034
 30
0.0
 10
5.80918
 20
-0.34034
 30
0.0
 10
5.80918
 20
-0.34034
 30
0.0
 10
5.89428
 20
0.2609599999999999
 30
0.0
 10
5.89428
 20
0.2609599999999999
 30
0.0
 10
5.89428
 20
0.2609599999999999
 30
0.0
 10
5.898069999999999
 20
0.28366
 30
0.0
 10
5.898069999999999
 20
0.30825
 30
0.0
 10
5.898069999999999
 20
0.32147
 30
0.0
 10
5.898069999999999
 20
0.32147
 30
0.0
 10
5.898069999999999
 20
0.46708
 30
0.0
 10
5.77894
 20
0.5086800000000001
 30
0.0
 10
5.639069999999999
 20
0.5086800000000001
 30
0.0
 10
5.639069999999999
 20
0.5086800000000001
 30
0.0
 10
5.639069999999999
 20
0.5086800000000001
 30
0.0
 10
5.429119999999999
 20
0.5086800000000001
 30
0.0
 10
5.429119999999999
 20
0.5086800000000001
 30
0.0
 10
5.429119999999999
 20
0.5086800000000001
 30
0.0
 10
5.36298
 20
0.5086800000000001
 30
0.0
 10
5.251419999999999
 20
0.4992200000000001
 30
0.0
 10
5.19093
 20
0.46519
 30
0.0
 10
5.19093
 20
0.46519
 30
0.0
 10
5.19093
 20
0.46519
 30
0.0
 10
5.15875
 20
0.2345
 30
0.0
 10
5.15875
 20
0.2345
 30
0.0
 10
5.15875
 20
0.2345
 30
0.0
 10
5.15875
 20
0.2345
 30
0.0
 10
5.29869
 20
0.2345
 30
0.0
 10
5.29869
 20
0.2345
 30
0.0
 10
5.29869
 20
0.2345
 30
0.0
 10
5.29869
 20
0.2345
 30
0.0
 10
5.319499999999999
 20
0.38388
 30
0.0
 10
5.319499999999999
 20
0.38388
 30
0.0
 10
5.319499999999999
 20
0.38388
 30
0.0
 10
5.319499999999999
 20
0.38388
 30
0.0
 10
5.6031
 20
0.38388
 30
0.0
 10
5.6031
 20
0.38388
 30
0.0
 10
5.6031
 20
0.38388
 30
0.0
 10
5.690119999999999
 20
0.38388
 30
0.0
 10
5.74304
 20
0.36686
 30
0.0
 10
5.74304
 20
0.28933
 30
0.0
 10
5.74304
 20
0.28933
 30
0.0
 10
5.74304
 20
0.27987
 30
0.0
 10
5.74304
 20
0.2609599999999999
 30
0.0
 10
5.741109999999999
 20
0.24773
 30
0.0
 10
5.741109999999999
 20
0.24773
 30
0.0
 10
5.741109999999999
 20
0.24773
 30
0.0
 10
5.714649999999999
 20
0.05865
 30
0.0
 10
5.714649999999999
 20
0.05865
 30
0.0
 10
5.714649999999999
 20
0.05865
 30
0.0
 10
5.714649999999999
 20
0.05865
 30
0.0
 10
5.347819999999999
 20
0.05865
 30
0.0
 10
5.347819999999999
 20
0.05865
 30
0.0
 10
5.347819999999999
 20
0.05865
 30
0.0
 10
5.17763
 20
0.05865
 30
0.0
 10
5.0585
 20
-0.00375
 30
0.0
 10
5.03204
 20
-0.19096
 30
0.0
 10
5.03204
 20
-0.19096
 30
0.0
 10
5.03204
 20
-0.19096
 30
0.0
 10
5.016949999999999
 20
-0.29683
 30
0.0
 10
5.016949999999999
 20
-0.29683
 30
0.0
 10
5.016949999999999
 20
-0.29683
 30
0.0
 10
5.015019999999999
 20
-0.3063
 30
0.0
 10
5.016949999999999
 20
-0.31953
 30
0.0
 10
5.016949999999999
 20
-0.32897
 30
0.0
 10
5.016949999999999
 20
-0.32897
 30
0.0
 10
5.016949999999999
 20
-0.44999
 30
0.0
 10
5.1039
 20
-0.5199600000000001
 30
0.0
 10
5.24005
 20
-0.5199600000000001
 30
0.0
 10
5.24005
 20
-0.5199600000000001
 30
0.0
 10
5.24005
 20
-0.5199600000000001
 30
0.0
 10
5.397009999999999
 20
-0.5199600000000001
 30
0.0
 10
5.397009999999999
 20
-0.5199600000000001
 30
0.0
 10
5.397009999999999
 20
-0.5199600000000001
 30
0.0
 10
5.51614
 20
-0.5199600000000001
 30
0.0
 10
5.60503
 20
-0.46322
 30
0.0
 10
5.66173
 20
-0.4008300000000001
 30
0.0
 10
5.66173
 20
-0.4008300000000001
 30
0.0
 10
5.66173
 20
-0.4008300000000001
 30
0.0
 10
5.66738
 20
-0.4008300000000001
 30
0.0
 10
5.66738
 20
-0.4008300000000001
 30
0.0
 10
5.66738
 20
-0.4008300000000001
 30
0.0
 10
5.66738
 20
-0.4008300000000001
 30
0.0
 10
5.6844
 20
-0.49726
 30
0.0
 10
5.6844
 20
-0.49726
 30
0.0
 10
5.6844
 20
-0.49726
 30
0.0
 10
5.6844
 20
-0.49726
 30
0.0
 10
5.928319999999999
 20
-0.49726
 30
0.0
 10
5.928319999999999
 20
-0.49726
 30
0.0
 10
5.928319999999999
 20
-0.49726
 30
0.0
 10
5.928319999999999
 20
-0.49726
 30
0.0
 10
5.94348
 20
-0.39139
 30
0.0
 10
5.94348
 20
-0.39139
 30
0.0
  0
SPLINE
  5
4B
330
1F
100
AcDbEntity
  8
Ebene 1
 62
   250
100
AcDbSpline
210
0.0
220
0.0
230
1.0
 70
    11
 71
     3
 72
    40
 73
    36
 74
     0
 42
0.0000000001
 43
0.0000000001
 40
0.0
 40
0.0
 40
0.0
 40
0.0
 40
0.1
 40
0.1
 40
0.1
 40
0.1
 40
0.2
 40
0.2
 40
0.2
 40
0.2
 40
0.3
 40
0.3
 40
0.3
 40
0.3
 40
0.4
 40
0.4
 40
0.4
 40
0.4
 40
0.5
 40
0.5
 40
0.5
 40
0.5
 40
0.6
 40
0.6
 40
0.6
 40
0.6
 40
0.7
 40
0.7
 40
0.7
 40
0.7
 40
0.8
 40
0.8
 40
0.8
 40
0.8
 40
1.0
 40
1.0
 40
1.0
 40
1.0
 10
5.69763
 20
-0.05481
 30
0.0
 10
5.69763
 20
-0.05481
 30
0.0
 10
5.69763
 20
-0.05481
 30
0.0
 10
5.69763
 20
-0.05481
 30
0.0
 10
5.69763
 20
-0.05481
 30
0.0
 10
5.69763
 20
-0.05481
 30
0.0
 10
5.673099999999999
 20
-0.22875
 30
0.0
 10
5.673099999999999
 20
-0.22875
 30
0.0
 10
5.673099999999999
 20
-0.22875
 30
0.0
 10
5.65608
 20
-0.35357
 30
0.0
 10
5.48969
 20
-0.39515
 30
0.0
 10
5.40831
 20
-0.39515
 30
0.0
 10
5.40831
 20
-0.39515
 30
0.0
 10
5.40831
 20
-0.39515
 30
0.0
 10
5.28925
 20
-0.39515
 30
0.0
 10
5.28925
 20
-0.39515
 30
0.0
 10
5.28925
 20
-0.39515
 30
0.0
 10
5.22304
 20
-0.39515
 30
0.0
 10
5.16819
 20
-0.37058
 30
0.0
 10
5.16819
 20
-0.3063
 30
0.0
 10
5.16819
 20
-0.3063
 30
0.0
 10
5.16819
 20
-0.30061
 30
0.0
 10
5.170119999999999
 20
-0.28549
 30
0.0
 10
5.17198
 20
-0.27791
 30
0.0
 10
5.17198
 20
-0.27791
 30
0.0
 10
5.17198
 20
-0.27791
 30
0.0
 10
5.189
 20
-0.17015
 30
0.0
 10
5.189
 20
-0.17015
 30
0.0
 10
5.189
 20
-0.17015
 30
0.0
 10
5.204159999999999
 20
-0.07372
 30
0.0
 10
5.255209999999999
 20
-0.05481
 30
0.0
 10
5.342169999999999
 20
-0.05481
 30
0.0
 10
5.342169999999999
 20
-0.05481
 30
0.0
 10
5.342169999999999
 20
-0.05481
 30
0.0
 10
5.69763
 20
-0.05481
 30
0.0
 10
5.69763
 20
-0.05481
 30
0.0
  0
SPLINE
  5
4C
330
1F
100
AcDbEntity
  8
Ebene 1
 62
   250
100
AcDbSpline
210
0.0
220
0.0
230
1.0
 70
    11
 71
     3
 72
    40
 73
    36
 74
     0
 42
0.0000000001
 43
0.0000000001
 40
0.0
 40
0.0
 40
0.0
 40
0.0
 40
0.1
 40
0.1
 40
0.1
 40
0.1
 40
0.2
 40
0.2
 40
0.2
 40
0.2
 40
0.3
 40
0.3
 40
0.3
 40
0.3
 40
0.4
 40
0.4
 40
0.4
 40
0.4
 40
0.5
 40
0.5
 40
0.5
 40
0.5
 40
0.6
 40
0.6
 40
0.6
 40
0.6
 40
0.7
 40
0.7
 40
0.7
 40
0.7
 40
0.8
 40
0.8
 40
0.8
 40
0.8
 40
1.0
 40
1.0
 40
1.0
 40
1.0
 10
6.527759999999999
 20
0.88685
 30
0.0
 10
6.527759999999999
 20
0.88685
 30
0.0
 10
6.527759999999999
 20
0.88685
 30
0.0
 10
6.527759999999999
 20
0.88685
 30
0.0
 10
6.527759999999999
 20
0.88685
 30
0.0
 10
6.527759999999999
 20
0.88685
 30
0.0
 10
6.21384
 20
0.8792899999999999
 30
0.0
 10
6.21384
 20
0.8792899999999999
 30
0.0
 10
6.21384
 20
0.8792899999999999
 30
0.0
 10
6.21384
 20
0.8792899999999999
 30
0.0
 10
6.19876
 20
0.7734
 30
0.0
 10
6.19876
 20
0.7734
 30
0.0
 10
6.19876
 20
0.7734
 30
0.0
 10
6.19876
 20
0.7734
 30
0.0
 10
6.35944
 20
0.7734
 30
0.0
 10
6.35944
 20
0.7734
 30
0.0
 10
6.35944
 20
0.7734
 30
0.0
 10
6.35944
 20
0.7734
 30
0.0
 10
6.18174
 20
-0.49726
 30
0.0
 10
6.18174
 20
-0.49726
 30
0.0
 10
6.18174
 20
-0.49726
 30
0.0
 10
6.18174
 20
-0.49726
 30
0.0
 10
6.474779999999999
 20
-0.49726
 30
0.0
 10
6.474779999999999
 20
-0.49726
 30
0.0
 10
6.474779999999999
 20
-0.49726
 30
0.0
 10
6.474779999999999
 20
-0.49726
 30
0.0
 10
6.48993
 20
-0.39139
 30
0.0
 10
6.48993
 20
-0.39139
 30
0.0
 10
6.48993
 20
-0.39139
 30
0.0
 10
6.48993
 20
-0.39139
 30
0.0
 10
6.348139999999999
 20
-0.3876
 30
0.0
 10
6.348139999999999
 20
-0.3876
 30
0.0
 10
6.348139999999999
 20
-0.3876
 30
0.0
 10
6.348139999999999
 20
-0.3876
 30
0.0
 10
6.527759999999999
 20
0.88685
 30
0.0
 10
6.527759999999999
 20
0.88685
 30
0.0
  0
SPLINE
  5
4D
330
1F
100
AcDbEntity
  8
Ebene 1
 62
   250
100
AcDbSpline
210
0.0
220
0.0
230
1.0
 70
    11
 71
     3
 72
    40
 73
    36
 74
     0
 42
0.0000000001
 43
0.0000000001
 40
0.0
 40
0.0
 40
0.0
 40
0.0
 40
0.1
 40
0.1
 40
0.1
 40
0.1
 40
0.2
 40
0.2
 40
0.2
 40
0.2
 40
0.3
 40
0.3
 40
0.3
 40
0.3
 40
0.4
 40
0.4
 40
0.4
 40
0.4
 40
0.5
 40
0.5
 40
0.5
 40
0.5
 40
0.6
 40
0.6
 40
0.6
 40
0.6
 40
0.7
 40
0.7
 40
0.7
 40
0.7
 40
0.8
 40
0.8
 40
0.8
 40
0.8
 40
1.0
 40
1.0
 40
1.0
 40
1.0
 10
7.129069999999999
 20
0.88685
 30
0.0
 10
7.129069999999999
 20
0.88685
 30
0.0
 10
7.129069999999999
 20
0.88685
 30
0.0
 10
7.129069999999999
 20
0.88685
 30
0.0
 10
7.129069999999999
 20
0.88685
 30
0.0
 10
7.129069999999999
 20
0.88685
 30
0.0
 10
6.81515
 20
0.8792899999999999
 30
0.0
 10
6.81515
 20
0.8792899999999999
 30
0.0
 10
6.81515
 20
0.8792899999999999
 30
0.0
 10
6.81515
 20
0.8792899999999999
 30
0.0
 10
6.80006
 20
0.7734
 30
0.0
 10
6.80006
 20
0.7734
 30
0.0
 10
6.80006
 20
0.7734
 30
0.0
 10
6.80006
 20
0.7734
 30
0.0
 10
6.960739999999999
 20
0.7734
 30
0.0
 10
6.960739999999999
 20
0.7734
 30
0.0
 10
6.960739999999999
 20
0.7734
 30
0.0
 10
6.960739999999999
 20
0.7734
 30
0.0
 10
6.783039999999999
 20
-0.49726
 30
0.0
 10
6.783039999999999
 20
-0.49726
 30
0.0
 10
6.783039999999999
 20
-0.49726
 30
0.0
 10
6.783039999999999
 20
-0.49726
 30
0.0
 10
7.07608
 20
-0.49726
 30
0.0
 10
7.07608
 20
-0.49726
 30
0.0
 10
7.07608
 20
-0.49726
 30
0.0
 10
7.07608
 20
-0.49726
 30
0.0
 10
7.091239999999999
 20
-0.39139
 30
0.0
 10
7.091239999999999
 20
-0.39139
 30
0.0
 10
7.091239999999999
 20
-0.39139
 30
0.0
 10
7.091239999999999
 20
-0.39139
 30
0.0
 10
6.949439999999999
 20
-0.3876
 30
0.0
 10
6.949439999999999
 20
-0.3876
 30
0.0
 10
6.949439999999999
 20
-0.3876
 30
0.0
 10
6.949439999999999
 20
-0.3876
 30
0.0
 10
7.129069999999999
 20
0.88685
 30
0.0
 10
7.129069999999999
 20
0.88685
 30
0.0
  0
SPLINE
  5
4E
330
1F
100
AcDbEntity
  8
Ebene 1
 62
   250
100
AcDbSpline
210
0.0
220
0.0
230
1.0
 70
    11
 71
     3
 72
    76
 73
    72
 74
     0
 42
0.0000000001
 43
0.0000000001
 40
0.0
 40
0.0
 40
0.0
 40
0.0
 40
0.0526315789473684
 40
0.0526315789473684
 40
0.0526315789473684
 40
0.0526315789473684
 40
0.1052631578947368
 40
0.1052631578947368
 40
0.1052631578947368
 40
0.1052631578947368
 40
0.1578947368421053
 40
0.1578947368421053
 40
0.1578947368421053
 40
0.1578947368421053
 40
0.2105263157894737
 40
0.2105263157894737
 40
0.2105263157894737
 40
0.2105263157894737
 40
0.2631578947368421
 40
0.2631578947368421
 40
0.2631578947368421
 40
0.2631578947368421
 40
0.3157894736842105
 40
0.3157894736842105
 40
0.3157894736842105
 40
0.3157894736842105
 40
0.3684210526315789
 40
0.3684210526315789
 40
0.3684210526315789
 40
0.3684210526315789
 40
0.4210526315789473
 40
0.4210526315789473
 40
0.4210526315789473
 40
0.4210526315789473
 40
0.4736842105263159
 40
0.4736842105263159
 40
0.4736842105263159
 40
0.4736842105263159
 40
0.5263157894736842
 40
0.5263157894736842
 40
0.5263157894736842
 40
0.5263157894736842
 40
0.5789473684210527
 40
0.5789473684210527
 40
0.5789473684210527
 40
0.5789473684210527
 40
0.6315789473684211
 40
0.6315789473684211
 40
0.6315789473684211
 40
0.6315789473684211
 40
0.6842105263157895
 40
0.6842105263157895
 40
0.6842105263157895
 40
0.6842105263157895
 40
0.7368421052631579
 40
0.7368421052631579
 40
0.7368421052631579
 40
0.7368421052631579
 40
0.7894736842105264
 40
0.7894736842105264
 40
0.7894736842105264
 40
0.7894736842105264
 40
0.8421052631578946
 40
0.8421052631578946
 40
0.8421052631578946
 40
0.8421052631578946
 40
0.8947368421052631
 40
0.8947368421052631
 40
0.8947368421052631
 40
0.8947368421052631
 40
1.0
 40
1.0
 40
1.0
 40
1.0
 10
8.195529999999999
 20
0.25908
 30
0.0
 10
8.195529999999999
 20
0.25908
 30
0.0
 10
8.195529999999999
 20
0.25908
 30
0.0
 10
8.195529999999999
 20
0.25908
 30
0.0
 10
8.195529999999999
 20
0.25908
 30
0.0
 10
8.195529999999999
 20
0.4595200000000001
 30
0.0
 10
8.0518
 20
0.5086800000000001
 30
0.0
 10
7.875969999999999
 20
0.5086800000000001
 30
0.0
 10
7.875969999999999
 20
0.5086800000000001
 30
0.0
 10
7.875969999999999
 20
0.5086800000000001
 30
0.0
 10
7.826769999999999
 20
0.5086800000000001
 30
0.0
 10
7.826769999999999
 20
0.5086800000000001
 30
0.0
 10
7.826769999999999
 20
0.5086800000000001
 30
0.0
 10
7.61311
 20
0.5086800000000001
 30
0.0
 10
7.43913
 20
0.4425
 30
0.0
 10
7.399439999999999
 20
0.16642
 30
0.0
 10
7.399439999999999
 20
0.16642
 30
0.0
 10
7.399439999999999
 20
0.16642
 30
0.0
 10
7.346519999999999
 20
-0.2004
 30
0.0
 10
7.346519999999999
 20
-0.2004
 30
0.0
 10
7.346519999999999
 20
-0.2004
 30
0.0
 10
7.34273
 20
-0.225
 30
0.0
 10
7.34273
 20
-0.24766
 30
0.0
 10
7.34273
 20
-0.26847
 30
0.0
 10
7.34273
 20
-0.26847
 30
0.0
 10
7.34273
 20
-0.45568
 30
0.0
 10
7.484539999999999
 20
-0.5199600000000001
 30
0.0
 10
7.643349999999999
 20
-0.5199600000000001
 30
0.0
 10
7.643349999999999
 20
-0.5199600000000001
 30
0.0
 10
7.643349999999999
 20
-0.5199600000000001
 30
0.0
 10
7.862739999999999
 20
-0.5199600000000001
 30
0.0
 10
7.862739999999999
 20
-0.5199600000000001
 30
0.0
 10
7.862739999999999
 20
-0.5199600000000001
 30
0.0
 10
7.944039999999999
 20
-0.5199600000000001
 30
0.0
 10
8.02341
 20
-0.49726
 30
0.0
 10
8.06882
 20
-0.46322
 30
0.0
 10
8.06882
 20
-0.46322
 30
0.0
 10
8.06882
 20
-0.46322
 30
0.0
 10
8.07826
 20
-0.39139
 30
0.0
 10
8.07826
 20
-0.39139
 30
0.0
 10
8.07826
 20
-0.39139
 30
0.0
 10
8.07826
 20
-0.39139
 30
0.0
 10
7.66416
 20
-0.39139
 30
0.0
 10
7.66416
 20
-0.39139
 30
0.0
 10
7.66416
 20
-0.39139
 30
0.0
 10
7.541239999999999
 20
-0.39139
 30
0.0
 10
7.49397
 20
-0.34788
 30
0.0
 10
7.49397
 20
-0.26089
 30
0.0
 10
7.49397
 20
-0.26089
 30
0.0
 10
7.49397
 20
-0.24577
 30
0.0
 10
7.495899999999999
 20
-0.22875
 30
0.0
 10
7.49776
 20
-0.20987
 30
0.0
 10
7.49776
 20
-0.20987
 30
0.0
 10
7.49776
 20
-0.20987
 30
0.0
 10
7.52236
 20
-0.0321
 30
0.0
 10
7.52236
 20
-0.0321
 30
0.0
 10
7.52236
 20
-0.0321
 30
0.0
 10
7.52236
 20
-0.0321
 30
0.0
 10
8.025339999999999
 20
-0.0321
 30
0.0
 10
8.025339999999999
 20
-0.0321
 30
0.0
 10
8.025339999999999
 20
-0.0321
 30
0.0
 10
8.025339999999999
 20
-0.0321
 30
0.0
 10
8.161489999999998
 20
-0.00942
 30
0.0
 10
8.161489999999998
 20
-0.00942
 30
0.0
 10
8.161489999999998
 20
-0.00942
 30
0.0
 10
8.161489999999998
 20
-0.00942
 30
0.0
 10
8.18795
 20
0.18722
 30
0.0
 10
8.18795
 20
0.18722
 30
0.0
 10
8.18795
 20
0.18722
 30
0.0
 10
8.191739999999999
 20
0.20802
 30
0.0
 10
8.195529999999999
 20
0.24017
 30
0.0
 10
8.195529999999999
 20
0.25908
 30
0.0
  0
SPLINE
  5
4F
330
1F
100
AcDbEntity
  8
Ebene 1
 62
   250
100
AcDbSpline
210
0.0
220
0.0
230
1.0
 70
    11
 71
     3
 72
    36
 73
    32
 74
     0
 42
0.0000000001
 43
0.0000000001
 40
0.0
 40
0.0
 40
0.0
 40
0.0
 40
0.1111111111111111
 40
0.1111111111111111
 40
0.1111111111111111
 40
0.1111111111111111
 40
0.2222222222222222
 40
0.2222222222222222
 40
0.2222222222222222
 40
0.2222222222222222
 40
0.3333333333333333
 40
0.3333333333333333
 40
0.3333333333333333
 40
0.3333333333333333
 40
0.4444444444444445
 40
0.4444444444444445
 40
0.4444444444444445
 40
0.4444444444444445
 40
0.5555555555555556
 40
0.5555555555555556
 40
0.5555555555555556
 40
0.5555555555555556
 40
0.6666666666666666
 40
0.6666666666666666
 40
0.6666666666666666
 40
0.6666666666666666
 40
0.7777777777777778
 40
0.7777777777777778
 40
0.7777777777777778
 40
0.7777777777777778
 40
1.0
 40
1.0
 40
1.0
 40
1.0
 10
8.048010000000001
 20
0.2609599999999999
 30
0.0
 10
8.048010000000001
 20
0.2609599999999999
 30
0.0
 10
8.048010000000001
 20
0.2609599999999999
 30
0.0
 10
8.048010000000001
 20
0.2609599999999999
 30
0.0
 10
8.048010000000001
 20
0.2609599999999999
 30
0.0
 10
8.048010000000001
 20
0.24773
 30
0.0
 10
8.048010000000001
 20
0.2345
 30
0.0
 10
8.046079999999999
 20
0.21936
 30
0.0
 10
8.046079999999999
 20
0.21936
 30
0.0
 10
8.046079999999999
 20
0.21936
 30
0.0
 10
8.025339999999999
 20
0.08133
 30
0.0
 10
8.025339999999999
 20
0.08133
 30
0.0
 10
8.025339999999999
 20
0.08133
 30
0.0
 10
8.025339999999999
 20
0.08133
 30
0.0
 10
7.537449999999999
 20
0.08133
 30
0.0
 10
7.537449999999999
 20
0.08133
 30
0.0
 10
7.537449999999999
 20
0.08133
 30
0.0
 10
7.537449999999999
 20
0.08133
 30
0.0
 10
7.554469999999999
 20
0.19857
 30
0.0
 10
7.554469999999999
 20
0.19857
 30
0.0
 10
7.554469999999999
 20
0.19857
 30
0.0
 10
7.571489999999999
 20
0.31958
 30
0.0
 10
7.63198
 20
0.38388
 30
0.0
 10
7.777639999999998
 20
0.38388
 30
0.0
 10
7.777639999999998
 20
0.38388
 30
0.0
 10
7.777639999999998
 20
0.38388
 30
0.0
 10
7.874039999999999
 20
0.38388
 30
0.0
 10
7.874039999999999
 20
0.38388
 30
0.0
 10
7.874039999999999
 20
0.38388
 30
0.0
 10
7.985589999999999
 20
0.38388
 30
0.0
 10
8.048010000000001
 20
0.3593
 30
0.0
 10
8.048010000000001
 20
0.2609599999999999
 30
0.0
  0
SPLINE
  5
50
330
1F
100
AcDbEntity
  8
Ebene 1
 62
   250
100
AcDbSpline
210
0.0
220
0.0
230
1.0
 70
    11
 71
     3
 72
    84
 73
    80
 74
     0
 42
0.0000000001
 43
0.0000000001
 40
0.0
 40
0.0
 40
0.0
 40
0.0
 40
0.0476190476190476
 40
0.0476190476190476
 40
0.0476190476190476
 40
0.0476190476190476
 40
0.0952380952380952
 40
0.0952380952380952
 40
0.0952380952380952
 40
0.0952380952380952
 40
0.1428571428571428
 40
0.1428571428571428
 40
0.1428571428571428
 40
0.1428571428571428
 40
0.1904761904761905
 40
0.1904761904761905
 40
0.1904761904761905
 40
0.1904761904761905
 40
0.2380952380952381
 40
0.2380952380952381
 40
0.2380952380952381
 40
0.2380952380952381
 40
0.2857142857142857
 40
0.2857142857142857
 40
0.2857142857142857
 40
0.2857142857142857
 40
0.3333333333333333
 40
0.3333333333333333
 40
0.3333333333333333
 40
0.3333333333333333
 40
0.3809523809523809
 40
0.3809523809523809
 40
0.3809523809523809
 40
0.3809523809523809
 40
0.4285714285714285
 40
0.4285714285714285
 40
0.4285714285714285
 40
0.4285714285714285
 40
0.4761904761904762
 40
0.4761904761904762
 40
0.4761904761904762
 40
0.4761904761904762
 40
0.5238095238095239
 40
0.5238095238095239
 40
0.5238095238095239
 40
0.5238095238095239
 40
0.5714285714285714
 40
0.5714285714285714
 40
0.5714285714285714
 40
0.5714285714285714
 40
0.6190476190476191
 40
0.6190476190476191
 40
0.6190476190476191
 40
0.6190476190476191
 40
0.6666666666666666
 40
0.6666666666666666
 40
0.6666666666666666
 40
0.6666666666666666
 40
0.7142857142857144
 40
0.7142857142857144
 40
0.7142857142857144
 40
0.7142857142857144
 40
0.7619047619047619
 40
0.7619047619047619
 40
0.7619047619047619
 40
0.7619047619047619
 40
0.8095238095238094
 40
0.8095238095238094
 40
0.8095238095238094
 40
0.8095238095238094
 40
0.8571428571428571
 40
0.8571428571428571
 40
0.8571428571428571
 40
0.8571428571428571
 40
0.9047619047619047
 40
0.9047619047619047
 40
0.9047619047619047
 40
0.9047619047619047
 40
1.0
 40
1.0
 40
1.0
 40
1.0
 10
9.22982
 20
0.37632
 30
0.0
 10
9.22982
 20
0.37632
 30
0.0
 10
9.22982
 20
0.37632
 30
0.0
 10
9.22982
 20
0.37632
 30
0.0
 10
9.22982
 20
0.37632
 30
0.0
 10
9.22982
 20
0.37632
 30
0.0
 10
9.22982
 20
0.48598
 30
0.0
 10
9.22982
 20
0.48598
 30
0.0
 10
9.22982
 20
0.48598
 30
0.0
 10
9.22982
 20
0.48598
 30
0.0
 10
8.908389999999998
 20
0.4822
 30
0.0
 10
8.908389999999998
 20
0.4822
 30
0.0
 10
8.908389999999998
 20
0.4822
 30
0.0
 10
8.908389999999998
 20
0.4822
 30
0.0
 10
8.89323
 20
0.37632
 30
0.0
 10
8.89323
 20
0.37632
 30
0.0
 10
8.89323
 20
0.37632
 30
0.0
 10
8.89323
 20
0.37632
 30
0.0
 10
9.080439999999999
 20
0.37632
 30
0.0
 10
9.080439999999999
 20
0.37632
 30
0.0
 10
9.080439999999999
 20
0.37632
 30
0.0
 10
9.080439999999999
 20
0.37632
 30
0.0
 10
8.77031
 20
-0.28739
 30
0.0
 10
8.77031
 20
-0.28739
 30
0.0
 10
8.77031
 20
-0.28739
 30
0.0
 10
8.77031
 20
-0.28739
 30
0.0
 10
8.764660000000001
 20
-0.28739
 30
0.0
 10
8.764660000000001
 20
-0.28739
 30
0.0
 10
8.764660000000001
 20
-0.28739
 30
0.0
 10
8.764660000000001
 20
-0.28739
 30
0.0
 10
8.620929999999999
 20
0.38009
 30
0.0
 10
8.620929999999999
 20
0.38009
 30
0.0
 10
8.620929999999999
 20
0.38009
 30
0.0
 10
8.620929999999999
 20
0.38009
 30
0.0
 10
8.620929999999999
 20
0.48598
 30
0.0
 10
8.620929999999999
 20
0.48598
 30
0.0
 10
8.620929999999999
 20
0.48598
 30
0.0
 10
8.620929999999999
 20
0.48598
 30
0.0
 10
8.350559999999999
 20
0.4822
 30
0.0
 10
8.350559999999999
 20
0.4822
 30
0.0
 10
8.350559999999999
 20
0.4822
 30
0.0
 10
8.350559999999999
 20
0.4822
 30
0.0
 10
8.335399999999999
 20
0.37632
 30
0.0
 10
8.335399999999999
 20
0.37632
 30
0.0
 10
8.335399999999999
 20
0.37632
 30
0.0
 10
8.335399999999999
 20
0.37632
 30
0.0
 10
8.463969999999999
 20
0.37632
 30
0.0
 10
8.463969999999999
 20
0.37632
 30
0.0
 10
8.463969999999999
 20
0.37632
 30
0.0
 10
8.463969999999999
 20
0.37632
 30
0.0
 10
8.666339999999999
 20
-0.48214
 30
0.0
 10
8.666339999999999
 20
-0.48214
 30
0.0
 10
8.666339999999999
 20
-0.48214
 30
0.0
 10
8.666339999999999
 20
-0.48214
 30
0.0
 10
8.569879999999999
 20
-0.65987
 30
0.0
 10
8.569879999999999
 20
-0.65987
 30
0.0
 10
8.569879999999999
 20
-0.65987
 30
0.0
 10
8.543419999999999
 20
-0.70717
 30
0.0
 10
8.51317
 20
-0.76388
 30
0.0
 10
8.401619999999999
 20
-0.76388
 30
0.0
 10
8.401619999999999
 20
-0.76388
 30
0.0
 10
8.401619999999999
 20
-0.76388
 30
0.0
 10
8.28814
 20
-0.76388
 30
0.0
 10
8.28814
 20
-0.76388
 30
0.0
 10
8.28814
 20
-0.76388
 30
0.0
 10
8.28814
 20
-0.76388
 30
0.0
 10
8.271119999999999
 20
-0.8868
 30
0.0
 10
8.271119999999999
 20
-0.8868
 30
0.0
 10
8.271119999999999
 20
-0.8868
 30
0.0
 10
8.308949999999999
 20
-0.8962399999999998
 30
0.0
 10
8.34112
 20
-0.9000299999999999
 30
0.0
 10
8.3846
 20
-0.9000299999999999
 30
0.0
 10
8.3846
 20
-0.9000299999999999
 30
0.0
 10
8.569879999999999
 20
-0.9000299999999999
 30
0.0
 10
8.649319999999999
 20
-0.79981
 30
0.0
 10
8.69466
 20
-0.70717
 30
0.0
 10
8.69466
 20
-0.70717
 30
0.0
 10
8.69466
 20
-0.70717
 30
0.0
 10
9.22982
 20
0.37632
 30
0.0
 10
9.22982
 20
0.37632
 30
0.0
  0
SPLINE
  5
51
330
1F
100
AcDbEntity
  8
Ebene 1
 62
   254
100
AcDbSpline
210
0.0
220
0.0
230
1.0
 70
     8
 71
     3
 72
    59
 73
    55
 74
     0
 42
0.0000000001
 43
0.0000000001
 40
0.3303636146246327
 40
0.3303636146246327
 40
0.3303636146246327
 40
0.3303636146246327
 40
0.375
 40
0.375
 40
0.375
 40
0.375
 40
0.4375
 40
0.4375
 40
0.4375
 40
0.4375
 40
0.5
 40
0.5
 40
0.5
 40
0.5
 40
0.5625
 40
0.5625
 40
0.5625
 40
0.5625
 40
0.625
 40
0.625
 40
0.625
 40
0.625
 40
0.6875
 40
0.6875
 40
0.6875
 40
0.6875
 40
0.75
 40
0.75
 40
0.75
 40
0.75
 40
0.8125
 40
0.8125
 40
0.8125
 40
0.8125
 40
0.875
 40
0.875
 40
0.875
 40
0.875
 40
1.0
 40
1.0
 40
1.0
 40
1.0625
 40
1.0625
 40
1.0625
 40
1.0625
 40
1.125
 40
1.125
 40
1.125
 40
1.125
 40
1.1875
 40
1.1875
 40
1.1875
 40
1.1875
 40
1.233948747498981
 40
1.233948747498981
 40
1.233948747498981
 40
1.233948747498981
 10
-5.516410939205333
 20
0.1841835452719181
 30
0.0
 10
-5.258543874546727
 20
-0.0439612510398631
 30
0.0
 10
-4.807439999999999
 20
-0.44307
 30
0.0
 10
-4.807439999999999
 20
-0.44307
 30
0.0
 10
-4.807439999999999
 20
-0.44307
 30
0.0
 10
-4.76143
 20
-0.4837600000000001
 30
0.0
 10
-4.705219999999999
 20
-0.5053200000000001
 30
0.0
 10
-4.64833
 20
-0.5088
 30
0.0
 10
-4.64833
 20
-0.5088
 30
0.0
 10
-4.647289999999999
 20
-0.50887
 30
0.0
 10
-4.646259999999999
 20
-0.5089800000000001
 30
0.0
 10
-4.64522
 20
-0.5090399999999999
 30
0.0
 10
-4.64522
 20
-0.5090399999999999
 30
0.0
 10
-4.640469999999999
 20
-0.50929
 30
0.0
 10
-4.635709999999999
 20
-0.50925
 30
0.0
 10
-4.630959999999999
 20
-0.50925
 30
0.0
 10
-4.630959999999999
 20
-0.50925
 30
0.0
 10
-4.626209999999999
 20
-0.50925
 30
0.0
 10
-4.62145
 20
-0.50929
 30
0.0
 10
-4.616699999999999
 20
-0.5090399999999999
 30
0.0
 10
-4.616699999999999
 20
-0.5090399999999999
 30
0.0
 10
-4.615669999999999
 20
-0.5089800000000001
 30
0.0
 10
-4.61463
 20
-0.50887
 30
0.0
 10
-4.613599999999999
 20
-0.5088
 30
0.0
 10
-4.613599999999999
 20
-0.5088
 30
0.0
 10
-4.5567
 20
-0.5053200000000001
 30
0.0
 10
-4.50048
 20
-0.4837600000000001
 30
0.0
 10
-4.45448
 20
-0.44307
 30
0.0
 10
-4.45448
 20
-0.44307
 30
0.0
 10
-4.45448
 20
-0.44307
 30
0.0
 10
-3.570059999999999
 20
0.33939
 30
0.0
 10
-3.570059999999999
 20
0.33939
 30
0.0
 10
-3.570059999999999
 20
0.33939
 30
0.0
 10
-3.570059999999999
 20
0.33941
 30
0.0
 10
-3.570059999999999
 20
0.33941
 30
0.0
 10
-3.570059999999999
 20
0.33941
 30
0.0
 10
-3.570059999999999
 20
0.33941
 30
0.0
 10
-3.460539999999999
 20
0.4363000000000001
 30
0.0
 10
-3.450309999999999
 20
0.60363
 30
0.0
 10
-3.5472
 20
0.7131499999999999
 30
0.0
 10
-3.644099999999999
 20
0.8226700000000001
 30
0.0
 10
-3.811419999999999
 20
0.8329
 30
0.0
 10
-3.92094
 20
0.7360100000000001
 30
0.0
 10
-3.92094
 20
0.7360100000000001
 30
0.0
 10
-3.92094
 20
0.7360100000000001
 30
0.0
 10
-4.630959999999999
 20
0.10783
 30
0.0
 10
-4.630959999999999
 20
0.10783
 30
0.0
 10
-4.630959999999999
 20
0.10783
 30
0.0
 10
-4.630959999999999
 20
0.10783
 30
0.0
 10
-5.34098
 20
0.7360100000000001
 30
0.0
 10
-5.34098
 20
0.7360100000000001
 30
0.0
 10
-5.34098
 20
0.7360100000000001
 30
0.0
 10
-5.422373069217416
 20
0.8080167063228216
 30
0.0
 10
-5.535695552578218
 20
0.8208592742087043
 30
0.0
 10
-5.628304605971861
 20
0.7777516878243964
 30
0.0
  0
SPLINE
  5
52
330
1F
100
AcDbEntity
  8
Ebene 1
 62
   253
100
AcDbSpline
210
0.0
220
0.0
230
1.0
 70
    11
 71
     3
 72
   232
 73
   228
 74
     0
 42
0.0000000001
 43
0.0000000001
 40
0.0
 40
0.0
 40
0.0
 40
0.0
 40
0.0172413793103448
 40
0.0172413793103448
 40
0.0172413793103448
 40
0.0172413793103448
 40
0.0344827586206897
 40
0.0344827586206897
 40
0.0344827586206897
 40
0.0344827586206897
 40
0.0517241379310345
 40
0.0517241379310345
 40
0.0517241379310345
 40
0.0517241379310345
 40
0.0689655172413793
 40
0.0689655172413793
 40
0.0689655172413793
 40
0.0689655172413793
 40
0.0862068965517241
 40
0.0862068965517241
 40
0.0862068965517241
 40
0.0862068965517241
 40
0.103448275862069
 40
0.103448275862069
 40
0.103448275862069
 40
0.103448275862069
 40
0.1206896551724138
 40
0.1206896551724138
 40
0.1206896551724138
 40
0.1206896551724138
 40
0.1379310344827586
 40
0.1379310344827586
 40
0.1379310344827586
 40
0.1379310344827586
 40
0.1551724137931035
 40
0.1551724137931035
 40
0.1551724137931035
 40
0.1551724137931035
 40
0.1724137931034483
 40
0.1724137931034483
 40
0.1724137931034483
 40
0.1724137931034483
 40
0.1896551724137931
 40
0.1896551724137931
 40
0.1896551724137931
 40
0.1896551724137931
 40
0.2068965517241379
 40
0.2068965517241379
 40
0.2068965517241379
 40
0.2068965517241379
 40
0.2241379310344828
 40
0.2241379310344828
 40
0.2241379310344828
 40
0.2241379310344828
 40
0.2413793103448276
 40
0.2413793103448276
 40
0.2413793103448276
 40
0.2413793103448276
 40
0.2586206896551724
 40
0.2586206896551724
 40
0.2586206896551724
 40
0.2586206896551724
 40
0.2758620689655172
 40
0.2758620689655172
 40
0.2758620689655172
 40
0.2758620689655172
 40
0.293103448275862
 40
0.293103448275862
 40
0.293103448275862
 40
0.293103448275862
 40
0.3103448275862069
 40
0.3103448275862069
 40
0.3103448275862069
 40
0.3103448275862069
 40
0.3275862068965517
 40
0.3275862068965517
 40
0.3275862068965517
 40
0.3275862068965517
 40
0.3448275862068966
 40
0.3448275862068966
 40
0.3448275862068966
 40
0.3448275862068966
 40
0.3620689655172414
 40
0.3620689655172414
 40
0.3620689655172414
 40
0.3620689655172414
 40
0.3793103448275862
 40
0.3793103448275862
 40
0.3793103448275862
 40
0.3793103448275862
 40
0.396551724137931
 40
0.396551724137931
 40
0.396551724137931
 40
0.396551724137931
 40
0.4137931034482759
 40
0.4137931034482759
 40
0.4137931034482759
 40
0.4137931034482759
 40
0.4310344827586208
 40
0.4310344827586208
 40
0.4310344827586208
 40
0.4310344827586208
 40
0.4482758620689655
 40
0.4482758620689655
 40
0.4482758620689655
 40
0.4482758620689655
 40
0.4655172413793104
 40
0.4655172413793104
 40
0.4655172413793104
 40
0.4655172413793104
 40
0.4827586206896552
 40
0.4827586206896552
 40
0.4827586206896552
 40
0.4827586206896552
 40
0.5
 40
0.5
 40
0.5
 40
0.5
 40
0.5172413793103449
 40
0.5172413793103449
 40
0.5172413793103449
 40
0.5172413793103449
 40
0.5344827586206896
 40
0.5344827586206896
 40
0.5344827586206896
 40
0.5344827586206896
 40
0.5517241379310346
 40
0.5517241379310346
 40
0.5517241379310346
 40
0.5517241379310346
 40
0.5689655172413794
 40
0.5689655172413794
 40
0.5689655172413794
 40
0.5689655172413794
 40
0.5862068965517241
 40
0.5862068965517241
 40
0.5862068965517241
 40
0.5862068965517241
 40
0.603448275862069
 40
0.603448275862069
 40
0.603448275862069
 40
0.603448275862069
 40
0.6206896551724138
 40
0.6206896551724138
 40
0.6206896551724138
 40
0.6206896551724138
 40
0.6379310344827588
 40
0.6379310344827588
 40
0.6379310344827588
 40
0.6379310344827588
 40
0.6551724137931034
 40
0.6551724137931034
 40
0.6551724137931034
 40
0.6551724137931034
 40
0.6724137931034483
 40
0.6724137931034483
 40
0.6724137931034483
 40
0.6724137931034483
 40
0.6896551724137932
 40
0.6896551724137932
 40
0.6896551724137932
 40
0.6896551724137932
 40
0.7068965517241379
 40
0.7068965517241379
 40
0.7068965517241379
 40
0.7068965517241379
 40
0.7241379310344828
 40
0.7241379310344828
 40
0.7241379310344828
 40
0.7241379310344828
 40
0.7413793103448276
 40
0.7413793103448276
 40
0.7413793103448276
 40
0.7413793103448276
 40
0.7586206896551725
 40
0.7586206896551725
 40
0.7586206896551725
 40
0.7586206896551725
 40
0.7758620689655173
 40
0.7758620689655173
 40
0.7758620689655173
 40
0.7758620689655173
 40
0.7931034482758621
 40
0.7931034482758621
 40
0.7931034482758621
 40
0.7931034482758621
 40
0.8103448275862067
 40
0.8103448275862067
 40
0.8103448275862067
 40
0.8103448275862067
 40
0.8275862068965517
 40
0.8275862068965517
 40
0.8275862068965517
 40
0.8275862068965517
 40
0.8448275862068966
 40
0.8448275862068966
 40
0.8448275862068966
 40
0.8448275862068966
 40
0.8620689655172412
 40
0.8620689655172412
 40
0.8620689655172412
 40
0.8620689655172412
 40
0.8793103448275861
 40
0.8793103448275861
 40
0.8793103448275861
 40
0.8793103448275861
 40
0.8965517241379307
 40
0.8965517241379307
 40
0.8965517241379307
 40
0.8965517241379307
 40
0.9137931034482759
 40
0.9137931034482759
 40
0.9137931034482759
 40
0.9137931034482759
 40
0.9310344827586208
 40
0.9310344827586208
 40
0.9310344827586208
 40
0.9310344827586208
 40
0.9482758620689656
 40
0.9482758620689656
 40
0.9482758620689656
 40
0.9482758620689656
 40
0.9655172413793103
 40
0.9655172413793103
 40
0.9655172413793103
 40
0.9655172413793103
 40
1.0
 40
1.0
 40
1.0
 40
1.0
 10
-5.318119999999999
 20
0.7131499999999999
 30
0.0
 10
-5.415009999999999
 20
0.8226700000000001
 30
0.0
 10
-5.58234
 20
0.8329
 30
0.0
 10
-5.69186
 20
0.7360100000000001
 30
0.0
 10
-5.69186
 20
0.7360100000000001
 30
0.0
 10
-5.69186
 20
0.7360100000000001
 30
0.0
 10
-6.40188
 20
0.10783
 30
0.0
 10
-6.40188
 20
0.10783
 30
0.0
 10
-6.40188
 20
0.10783
 30
0.0
 10
-6.40188
 20
0.10783
 30
0.0
 10
-7.1119
 20
0.7360100000000001
 30
0.0
 10
-7.1119
 20
0.7360100000000001
 30
0.0
 10
-7.1119
 20
0.7360100000000001
 30
0.0
 10
-7.11413
 20
0.73798
 30
0.0
 10
-7.11655
 20
0.73966
 30
0.0
 10
-7.118839999999999
 20
0.7415500000000001
 30
0.0
 10
-7.118839999999999
 20
0.7415500000000001
 30
0.0
 10
-7.122919999999999
 20
0.74493
 30
0.0
 10
-7.12697
 20
0.74832
 30
0.0
 10
-7.131199999999999
 20
0.75142
 30
0.0
 10
-7.131199999999999
 20
0.75142
 30
0.0
 10
-7.13418
 20
0.7536100000000001
 30
0.0
 10
-7.137289999999999
 20
0.75556
 30
0.0
 10
-7.14033
 20
0.7576100000000001
 30
0.0
 10
-7.14033
 20
0.7576100000000001
 30
0.0
 10
-7.144549999999999
 20
0.7604100000000001
 30
0.0
 10
-7.148739999999999
 20
0.76327
 30
0.0
 10
-7.15308
 20
0.7658199999999999
 30
0.0
 10
-7.15308
 20
0.7658199999999999
 30
0.0
 10
-7.156579999999999
 20
0.76789
 30
0.0
 10
-7.16018
 20
0.7697000000000001
 30
0.0
 10
-7.163739999999999
 20
0.7715800000000001
 30
0.0
 10
-7.163739999999999
 20
0.7715800000000001
 30
0.0
 10
-7.16776
 20
0.77371
 30
0.0
 10
-7.17175
 20
0.77588
 30
0.0
 10
-7.175869999999999
 20
0.77777
 30
0.0
 10
-7.175869999999999
 20
0.77777
 30
0.0
 10
-7.179899999999999
 20
0.77966
 30
0.0
 10
-7.184039999999999
 20
0.7812700000000001
 30
0.0
 10
-7.18815
 20
0.78294
 30
0.0
 10
-7.18815
 20
0.78294
 30
0.0
 10
-7.191919999999999
 20
0.7844600000000001
 30
0.0
 10
-7.19566
 20
0.78604
 30
0.0
 10
-7.19951
 20
0.7873899999999999
 30
0.0
 10
-7.19951
 20
0.7873899999999999
 30
0.0
 10
-7.203949999999999
 20
0.78895
 30
0.0
 10
-7.208439999999999
 20
0.7902300000000001
 30
0.0
 10
-7.212939999999999
 20
0.7915600000000001
 30
0.0
 10
-7.212939999999999
 20
0.7915600000000001
 30
0.0
 10
-7.216589999999999
 20
0.79262
 30
0.0
 10
-7.220229999999999
 20
0.79375
 30
0.0
 10
-7.22393
 20
0.79466
 30
0.0
 10
-7.22393
 20
0.79466
 30
0.0
 10
-7.22853
 20
0.7957900000000001
 30
0.0
 10
-7.23316
 20
0.7966600000000001
 30
0.0
 10
-7.2378
 20
0.7975300000000001
 30
0.0
 10
-7.2378
 20
0.7975300000000001
 30
0.0
 10
-7.24153
 20
0.79824
 30
0.0
 10
-7.24525
 20
0.7990000000000001
 30
0.0
 10
-7.24901
 20
0.79955
 30
0.0
 10
-7.24901
 20
0.79955
 30
0.0
 10
-7.253519999999999
 20
0.8002
 30
0.0
 10
-7.258049999999999
 20
0.8006199999999999
 30
0.0
 10
-7.262599999999999
 20
0.80103
 30
0.0
 10
-7.262599999999999
 20
0.80103
 30
0.0
 10
-7.266560000000001
 20
0.80141
 30
0.0
 10
-7.270519999999999
 20
0.80182
 30
0.0
 10
-7.274499999999999
 20
0.8020099999999999
 30
0.0
 10
-7.274499999999999
 20
0.8020099999999999
 30
0.0
 10
-7.278789999999998
 20
0.8022199999999999
 30
0.0
 10
-7.28306
 20
0.80218
 30
0.0
 10
-7.287339999999999
 20
0.80218
 30
0.0
 10
-7.287339999999999
 20
0.80218
 30
0.0
 10
-7.29163
 20
0.80218
 30
0.0
 10
-7.29588
 20
0.8022199999999999
 30
0.0
 10
-7.300169999999999
 20
0.8020099999999999
 30
0.0
 10
-7.300169999999999
 20
0.8020099999999999
 30
0.0
 10
-7.304149999999999
 20
0.80182
 30
0.0
 10
-7.30811
 20
0.80141
 30
0.0
 10
-7.312089999999999
 20
0.80103
 30
0.0
 10
-7.312089999999999
 20
0.80103
 30
0.0
 10
-7.316619999999999
 20
0.8006199999999999
 30
0.0
 10
-7.32115
 20
0.8002
 30
0.0
 10
-7.32566
 20
0.79955
 30
0.0
 10
-7.32566
 20
0.79955
 30
0.0
 10
-7.329439999999999
 20
0.7990000000000001
 30
0.0
 10
-7.333139999999999
 20
0.79824
 30
0.0
 10
-7.33688
 20
0.7975300000000001
 30
0.0
 10
-7.33688
 20
0.7975300000000001
 30
0.0
 10
-7.34153
 20
0.7966600000000001
 30
0.0
 10
-7.346139999999999
 20
0.7957900000000001
 30
0.0
 10
-7.350739999999999
 20
0.79466
 30
0.0
 10
-7.350739999999999
 20
0.79466
 30
0.0
 10
-7.354449999999999
 20
0.79375
 30
0.0
 10
-7.35808
 20
0.79262
 30
0.0
 10
-7.36173
 20
0.7915600000000001
 30
0.0
 10
-7.36173
 20
0.7915600000000001
 30
0.0
 10
-7.366249999999999
 20
0.7902300000000001
 30
0.0
 10
-7.37073
 20
0.78895
 30
0.0
 10
-7.375169999999999
 20
0.7873899999999999
 30
0.0
 10
-7.375169999999999
 20
0.7873899999999999
 30
0.0
 10
-7.37901
 20
0.78604
 30
0.0
 10
-7.382769999999999
 20
0.7844600000000001
 30
0.0
 10
-7.386539999999999
 20
0.78294
 30
0.0
 10
-7.386539999999999
 20
0.78294
 30
0.0
 10
-7.390649999999999
 20
0.7812700000000001
 30
0.0
 10
-7.394769999999999
 20
0.77966
 30
0.0
 10
-7.398819999999999
 20
0.77777
 30
0.0
 10
-7.398819999999999
 20
0.77777
 30
0.0
 10
-7.402919999999999
 20
0.77588
 30
0.0
 10
-7.406919999999999
 20
0.77371
 30
0.0
 10
-7.410949999999999
 20
0.7715800000000001
 30
0.0
 10
-7.410949999999999
 20
0.7715800000000001
 30
0.0
 10
-7.41451
 20
0.7697000000000001
 30
0.0
 10
-7.418099999999999
 20
0.76789
 30
0.0
 10
-7.421589999999999
 20
0.7658199999999999
 30
0.0
 10
-7.421589999999999
 20
0.7658199999999999
 30
0.0
 10
-7.42593
 20
0.76327
 30
0.0
 10
-7.430139999999999
 20
0.7604100000000001
 30
0.0
 10
-7.434339999999999
 20
0.75759
 30
0.0
 10
-7.434339999999999
 20
0.75759
 30
0.0
 10
-7.4374
 20
0.75556
 30
0.0
 10
-7.440489999999999
 20
0.7536100000000001
 30
0.0
 10
-7.443489999999999
 20
0.75142
 30
0.0
 10
-7.443489999999999
 20
0.75142
 30
0.0
 10
-7.44771
 20
0.74832
 30
0.0
 10
-7.45176
 20
0.74493
 30
0.0
 10
-7.455839999999999
 20
0.7415500000000001
 30
0.0
 10
-7.455839999999999
 20
0.7415500000000001
 30
0.0
 10
-7.45813
 20
0.73966
 30
0.0
 10
-7.460539999999999
 20
0.73798
 30
0.0
 10
-7.46278
 20
0.7360100000000001
 30
0.0
 10
-7.46278
 20
0.7360100000000001
 30
0.0
 10
-7.46278
 20
0.7360100000000001
 30
0.0
 10
-7.462789999999999
 20
0.7360100000000001
 30
0.0
 10
-7.462789999999999
 20
0.7360100000000001
 30
0.0
 10
-7.462789999999999
 20
0.7360100000000001
 30
0.0
 10
-7.462789999999999
 20
0.7360100000000001
 30
0.0
 10
-8.172789999999999
 20
0.10783
 30
0.0
 10
-8.172789999999999
 20
0.10783
 30
0.0
 10
-8.172789999999999
 20
0.10783
 30
0.0
 10
-8.172789999999999
 20
0.10783
 30
0.0
 10
-8.88281
 20
0.7360100000000001
 30
0.0
 10
-8.88281
 20
0.7360100000000001
 30
0.0
 10
-8.88281
 20
0.7360100000000001
 30
0.0
 10
-8.99233
 20
0.8329
 30
0.0
 10
-9.15966
 20
0.8226700000000001
 30
0.0
 10
-9.25655
 20
0.7131499999999999
 30
0.0
 10
-9.25655
 20
0.7131499999999999
 30
0.0
 10
-9.35345
 20
0.60363
 30
0.0
 10
-9.34322
 20
0.4363000000000001
 30
0.0
 10
-9.2337
 20
0.33941
 30
0.0
 10
-9.2337
 20
0.33941
 30
0.0
 10
-9.2337
 20
0.33941
 30
0.0
 10
-8.349289999999999
 20
-0.44307
 30
0.0
 10
-8.349289999999999
 20
-0.44307
 30
0.0
 10
-8.349289999999999
 20
-0.44307
 30
0.0
 10
-8.349289999999999
 20
-0.44307
 30
0.0
 10
-8.349269999999998
 20
-0.44307
 30
0.0
 10
-8.349269999999998
 20
-0.44307
 30
0.0
 10
-8.349269999999998
 20
-0.44307
 30
0.0
 10
-8.30328
 20
-0.4837600000000001
 30
0.0
 10
-8.247049999999999
 20
-0.5053200000000001
 30
0.0
 10
-8.190179999999999
 20
-0.5088
 30
0.0
 10
-8.190179999999999
 20
-0.5088
 30
0.0
 10
-8.189119999999999
 20
-0.50887
 30
0.0
 10
-8.188089999999998
 20
-0.5089800000000001
 30
0.0
 10
-8.18706
 20
-0.5090399999999999
 30
0.0
 10
-8.18706
 20
-0.5090399999999999
 30
0.0
 10
-8.182310000000001
 20
-0.50929
 30
0.0
 10
-8.177569999999999
 20
-0.50925
 30
0.0
 10
-8.172789999999999
 20
-0.50925
 30
0.0
 10
-8.172789999999999
 20
-0.50925
 30
0.0
 10
-8.168039999999999
 20
-0.50925
 30
0.0
 10
-8.163299999999999
 20
-0.50929
 30
0.0
 10
-8.15853
 20
-0.5090399999999999
 30
0.0
 10
-8.15853
 20
-0.5090399999999999
 30
0.0
 10
-8.1575
 20
-0.5089800000000001
 30
0.0
 10
-8.15646
 20
-0.50887
 30
0.0
 10
-8.15543
 20
-0.5088
 30
0.0
 10
-8.15543
 20
-0.5088
 30
0.0
 10
-8.09853
 20
-0.5053200000000001
 30
0.0
 10
-8.042329999999999
 20
-0.4837600000000001
 30
0.0
 10
-7.996319999999999
 20
-0.44307
 30
0.0
 10
-7.996319999999999
 20
-0.44307
 30
0.0
 10
-7.996319999999999
 20
-0.44307
 30
0.0
 10
-7.287339999999999
 20
0.18419
 30
0.0
 10
-7.287339999999999
 20
0.18419
 30
0.0
 10
-7.287339999999999
 20
0.18419
 30
0.0
 10
-7.287339999999999
 20
0.18419
 30
0.0
 10
-6.57835
 20
-0.44307
 30
0.0
 10
-6.57835
 20
-0.44307
 30
0.0
 10
-6.57835
 20
-0.44307
 30
0.0
 10
-6.532359999999999
 20
-0.4837600000000001
 30
0.0
 10
-6.47614
 20
-0.5053200000000001
 30
0.0
 10
-6.41924
 20
-0.5088
 30
0.0
 10
-6.41924
 20
-0.5088
 30
0.0
 10
-6.41821
 20
-0.50887
 30
0.0
 10
-6.417169999999999
 20
-0.5089800000000001
 30
0.0
 10
-6.41614
 20
-0.5090399999999999
 30
0.0
 10
-6.41614
 20
-0.5090399999999999
 30
0.0
 10
-6.411389999999999
 20
-0.50929
 30
0.0
 10
-6.40663
 20
-0.50925
 30
0.0
 10
-6.40188
 20
-0.50925
 30
0.0
 10
-6.40188
 20
-0.50925
 30
0.0
 10
-6.39712
 20
-0.50925
 30
0.0
 10
-6.392369999999999
 20
-0.50929
 30
0.0
 10
-6.38762
 20
-0.5090399999999999
 30
0.0
 10
-6.38762
 20
-0.5090399999999999
 30
0.0
 10
-6.38658
 20
-0.5089800000000001
 30
0.0
 10
-6.38555
 20
-0.50887
 30
0.0
 10
-6.384509999999999
 20
-0.5088
 30
0.0
 10
-6.384509999999999
 20
-0.5088
 30
0.0
 10
-6.327619999999999
 20
-0.5053200000000001
 30
0.0
 10
-6.271399999999999
 20
-0.4837600000000001
 30
0.0
 10
-6.225399999999999
 20
-0.44307
 30
0.0
 10
-6.225399999999999
 20
-0.44307
 30
0.0
 10
-6.225399999999999
 20
-0.44307
 30
0.0
 10
-5.34098
 20
0.33939
 30
0.0
 10
-5.34098
 20
0.33939
 30
0.0
 10
-5.34098
 20
0.33939
 30
0.0
 10
-5.34098
 20
0.33941
 30
0.0
 10
-5.34098
 20
0.33941
 30
0.0
 10
-5.34098
 20
0.33941
 30
0.0
 10
-5.34098
 20
0.33941
 30
0.0
 10
-5.23146
 20
0.4363000000000001
 30
0.0
 10
-5.22123
 20
0.60363
 30
0.0
 10
-5.318119999999999
 20
0.7131499999999999
 30
0.0
  0
ENDSEC
  0
SECTION
  2
OBJECTS
  0
DICTIONARY
  5
C
330
0
100
AcDbDictionary
281
     1
  3
ACAD_COLOR
350
7D
  3
ACAD_GROUP
350
D
  3
ACAD_LAYOUT
350
1A
  3
ACAD_MATERIAL
350
3B
  3
ACAD_MLEADERSTYLE
350
7A
  3
ACAD_MLINESTYLE
350
17
  3
ACAD_PLOTSETTINGS
350
19
  3
ACAD_PLOTSTYLENAME
350
E
  3
ACAD_TABLESTYLE
350
79
  3
ACAD_VISUALSTYLE
350
2A
  3
ACDBHEADERROUNDTRIPXREC
350
88
  3
AcDbVariableDictionary
350
81
  3
DWGPROPS
350
87
  0
DICTIONARY
  5
7D
102
{ACAD_REACTORS
330
C
102
}
330
C
100
AcDbDictionary
281
     1
  0
DICTIONARY
  5
D
102
{ACAD_REACTORS
330
C
102
}
330
C
100
AcDbDictionary
281
     1
  0
DICTIONARY
  5
1A
102
{ACAD_REACTORS
330
C
102
}
330
C
100
AcDbDictionary
281
     1
  3
Layout1
350
1E
  3
Layout2
350
26
  3
Model
350
22
  0
DICTIONARY
  5
3B
102
{ACAD_REACTORS
330
C
102
}
330
C
100
AcDbDictionary
281
     1
  3
ByBlock
350
3D
  3
ByLayer
350
3C
  3
Global
350
3E
  0
DICTIONARY
  5
7A
102
{ACAD_REACTORS
330
C
102
}
330
C
100
AcDbDictionary
281
     1
  0
DICTIONARY
  5
17
102
{ACAD_REACTORS
330
C
102
}
330
C
100
AcDbDictionary
281
     1
  3
Standard
350
18
  0
DICTIONARY
  5
19
102
{ACAD_REACTORS
330
C
102
}
330
C
100
AcDbDictionary
281
     1
  0
ACDBDICTIONARYWDFLT
  5
E
102
{ACAD_REACTORS
330
C
102
}
330
C
100
AcDbDictionary
281
     1
  3
Normal
350
F
100
AcDbDictionaryWithDefault
340
F
  0
DICTIONARY
  5
79
102
{ACAD_REACTORS
330
C
102
}
330
C
100
AcDbDictionary
281
     1
  3
Standard
350
7E
  0
DICTIONARY
  5
2A
102
{ACAD_REACTORS
330
C
102
}
330
C
100
AcDbDictionary
281
     1
  3
2dWireframe
350
2F
  3
3D Hidden
350
31
  3
3dWireframe
350
30
  3
Basic
350
32
  3
Brighten
350
36
  3
ColorChange
350
3A
  3
Conceptual
350
34
  3
Dim
350
35
  3
Facepattern
350
39
  3
Flat
350
2B
  3
FlatWithEdges
350
2C
  3
Gouraud
350
2D
  3
GouraudWithEdges
350
2E
  3
Linepattern
350
38
  3
Realistic
350
33
  3
Thicken
350
37
  0
DICTIONARY
  5
88
102
{ACAD_REACTORS
330
C
102
}
330
C
100
AcDbDictionary
281
     1
  0
DICTIONARY
  5
81
102
{ACAD_REACTORS
330
C
102
}
330
C
100
AcDbDictionary
281
     1
  3
CTABLESTYLE
350
82
  3
DIMASSOC
350
84
  3
HIDETEXT
350
83
  3
PROJECTNAME
350
85
  0
XRECORD
  5
87
102
{ACAD_REACTORS
330
C
102
}
330
C
100
AcDbXrecord
280
     1
  1
DWGPROPS COOKIE
  2

  3

  4

  6

  7

  8

  9

300
=
301
=
302
=
303
=
304
=
305
=
306
=
307
=
308
=
309
=
 40
0.0001775347222222
 41
2455469.722093241
 42
2455469.722387408
  1

 90
        0
  0
LAYOUT
  5
1E
102
{ACAD_XDICTIONARY
360
89
102
}
102
{ACAD_REACTORS
330
1A
102
}
330
1A
100
AcDbPlotSettings
  1

  2
none_device
  4

  6

 40
0.0
 41
0.0
 42
0.0
 43
0.0
 44
0.0
 45
0.0
 46
0.0
 47
0.0
 48
0.0
 49
0.0
140
0.0
141
0.0
142
1.0
143
1.0
 70
   688
 72
     0
 73
     0
 74
     5
  7

 75
    16
147
1.0
148
0.0
149
0.0
100
AcDbLayout
  1
Layout1
 70
     1
 71
     1
 10
0.0
 20
0.0
 11
12.0
 21
9.0
 12
0.0
 22
0.0
 32
0.0
 14
1.000000000000000E+20
 24
1.000000000000000E+20
 34
1.000000000000000E+20
 15
-1.000000000000000E+20
 25
-1.000000000000000E+20
 35
-1.000000000000000E+20
146
0.0
 13
0.0
 23
0.0
 33
0.0
 16
1.0
 26
0.0
 36
0.0
 17
0.0
 27
1.0
 37
0.0
 76
     0
330
1B
  0
LAYOUT
  5
26
102
{ACAD_XDICTIONARY
360
8D
102
}
102
{ACAD_REACTORS
330
1A
102
}
330
1A
100
AcDbPlotSettings
  1

  2
none_device
  4

  6

 40
0.0
 41
0.0
 42
0.0
 43
0.0
 44
0.0
 45
0.0
 46
0.0
 47
0.0
 48
0.0
 49
0.0
140
0.0
141
0.0
142
1.0
143
1.0
 70
   688
 72
     0
 73
     0
 74
     5
  7

 75
    16
147
1.0
148
0.0
149
0.0
100
AcDbLayout
  1
Layout2
 70
     1
 71
     2
 10
0.0
 20
0.0
 11
0.0
 21
0.0
 12
0.0
 22
0.0
 32
0.0
 14
0.0
 24
0.0
 34
0.0
 15
0.0
 25
0.0
 35
0.0
146
0.0
 13
0.0
 23
0.0
 33
0.0
 16
1.0
 26
0.0
 36
0.0
 17
0.0
 27
1.0
 37
0.0
 76
     0
330
23
  0
LAYOUT
  5
22
102
{ACAD_XDICTIONARY
360
8B
102
}
102
{ACAD_REACTORS
330
1A
102
}
330
1A
100
AcDbPlotSettings
  1

  2
none_device
  4

  6

 40
0.0
 41
0.0
 42
0.0
 43
0.0
 44
0.0
 45
0.0
 46
0.0
 47
0.0
 48
0.0
 49
0.0
140
0.0
141
0.0
142
1.0
143
1.0
 70
  1712
 72
     0
 73
     0
 74
     0
  7

 75
     0
147
1.0
148
0.0
149
0.0
100
AcDbLayout
  1
Model
 70
     1
 71
     0
 10
0.0
 20
0.0
 11
12.0
 21
9.0
 12
0.0
 22
0.0
 32
0.0
 14
-9.323030000000001
 24
-0.9000299999999999
 34
0.0
 15
9.22982
 25
0.8906399999999999
 35
0.0
146
0.0
 13
0.0
 23
0.0
 33
0.0
 16
1.0
 26
0.0
 36
0.0
 17
0.0
 27
1.0
 37
0.0
 76
     0
330
1F
331
29
  0
MATERIAL
  5
3D
102
{ACAD_XDICTIONARY
360
75
102
}
102
{ACAD_REACTORS
330
3B
102
}
330
3B
100
AcDbMaterial
  1
ByBlock
  0
MATERIAL
  5
3C
102
{ACAD_XDICTIONARY
360
73
102
}
102
{ACAD_REACTORS
330
3B
102
}
330
3B
100
AcDbMaterial
  1
ByLayer
  0
MATERIAL
  5
3E
102
{ACAD_XDICTIONARY
360
77
102
}
102
{ACAD_REACTORS
330
3B
102
}
330
3B
100
AcDbMaterial
  1
Global
  0
MLINESTYLE
  5
18
102
{ACAD_REACTORS
330
17
102
}
330
17
100
AcDbMlineStyle
  2
STANDARD
 70
     0
  3

 62
   256
 51
90.0
 52
90.0
 71
     2
 49
0.5
 62
   256
  6
BYLAYER
 49
-0.5
 62
   256
  6
BYLAYER
  0
ACDBPLACEHOLDER
  5
F
102
{ACAD_REACTORS
330
E
102
}
330
E
  0
TABLESTYLE
  5
7E
102
{ACAD_REACTORS
330
79
102
}
330
79
100
AcDbTableStyle
  3
Standard
 70
     0
 71
     0
 40
0.06
 41
0.06
280
     0
281
     0
  7
Standard
140
0.18
170
     2
 62
     0
 63
     7
283
     0
274
    -2
284
     1
 64
     0
275
    -2
285
     1
 65
     0
276
    -2
286
     1
 66
     0
277
    -2
287
     1
 67
     0
278
    -2
288
     1
 68
     0
279
    -2
289
     1
 69
     0
  7
Standard
140
0.25
170
     5
 62
     0
 63
     7
283
     0
274
    -2
284
     1
 64
     0
275
    -2
285
     1
 65
     0
276
    -2
286
     1
 66
     0
277
    -2
287
     1
 67
     0
278
    -2
288
     1
 68
     0
279
    -2
289
     1
 69
     0
  7
Standard
140
0.18
170
     5
 62
     0
 63
     7
283
     0
274
    -2
284
     1
 64
     0
275
    -2
285
     1
 65
     0
276
    -2
286
     1
 66
     0
277
    -2
287
     1
 67
     0
278
    -2
288
     1
 68
     0
279
    -2
289
     1
 69
     0
  0
ACAD_PROXY_OBJECT
  5
2F
102
{ACAD_XDICTIONARY
360
5B
102
}
102
{ACAD_REACTORS
330
2A
102
}
330
2A
100
AcDbProxyObject
 90
      499
 91
      501
 95
       25
 70
     1
100
AcDbVisualStyle
  2
2dWireframe
 70
     4
 71
     0
 72
     2
 73
     0
 90
        0
 40
-0.6
 41
-30.0
 62
     5
 63
     7
421
 16777215
 74
     1
 91
        4
 64
     7
 65
   257
 75
     1
175
     1
 42
1.0
 92
        0
 66
   257
 43
1.0
 76
     1
 77
     6
 78
     2
 67
     7
 79
     5
170
     0
171
     0
290
     0
174
     0
 93
        1
 44
0.0
173
     0
291
     0
 45
0.0
1001
ACAD
1000
AcDbSavedByObjectVersion
1070
     0
1001
ACAD
1000
AcRTDxfName
1000
VISUALSTYLE
  0
ACAD_PROXY_OBJECT
  5
31
102
{ACAD_XDICTIONARY
360
5F
102
}
102
{ACAD_REACTORS
330
2A
102
}
330
2A
100
AcDbProxyObject
 90
      499
 91
      501
 95
       25
 70
     1
100
AcDbVisualStyle
  2
3D Hidden
 70
     6
 71
     1
 72
     2
 73
     2
 90
        0
 40
-0.6
 41
-30.0
 62
     5
 63
     7
421
 16777215
 74
     2
 91
        2
 64
     7
 65
   257
 75
     2
175
     1
 42
40.0
 92
        0
 66
   257
 43
1.0
 76
     1
 77
     6
 78
     2
 67
     7
 79
     3
170
     0
171
     0
290
     0
174
     0
 93
        1
 44
0.0
173
     0
291
     0
 45
0.0
1001
ACAD
1000
AcDbSavedByObjectVersion
1070
     0
1001
ACAD
1000
AcRTDxfName
1000
VISUALSTYLE
  0
ACAD_PROXY_OBJECT
  5
30
102
{ACAD_XDICTIONARY
360
5D
102
}
102
{ACAD_REACTORS
330
2A
102
}
330
2A
100
AcDbProxyObject
 90
      499
 91
      501
 95
       25
 70
     1
100
AcDbVisualStyle
  2
3dWireframe
 70
     5
 71
     0
 72
     2
 73
     0
 90
        0
 40
-0.6
 41
-30.0
 62
     5
 63
     7
421
 16777215
 74
     1
 91
        4
 64
     7
 65
   257
 75
     1
175
     1
 42
1.0
 92
        0
 66
   257
 43
1.0
 76
     1
 77
     6
 78
     2
 67
     7
 79
     5
170
     0
171
     0
290
     0
174
     0
 93
        1
 44
0.0
173
     0
291
     0
 45
0.0
1001
ACAD
1000
AcDbSavedByObjectVersion
1070
     0
1001
ACAD
1000
AcRTDxfName
1000
VISUALSTYLE
  0
ACAD_PROXY_OBJECT
  5
32
102
{ACAD_XDICTIONARY
360
61
102
}
102
{ACAD_REACTORS
330
2A
102
}
330
2A
100
AcDbProxyObject
 90
      499
 91
      501
 95
       25
 70
     1
100
AcDbVisualStyle
  2
Basic
 70
     7
 71
     1
 72
     0
 73
     1
 90
        0
 40
-0.6
 41
-30.0
 62
     5
 63
     7
421
 16777215
 74
     0
 91
        4
 64
     7
 65
   257
 75
     1
175
     1
 42
1.0
 92
        8
 66
     7
 43
1.0
 76
     1
 77
     6
 78
     2
 67
     7
 79
     5
170
     0
171
     0
290
     0
174
     0
 93
        1
 44
0.0
173
     0
291
     1
 45
0.0
1001
ACAD
1000
AcDbSavedByObjectVersion
1070
     0
1001
ACAD
1000
AcRTDxfName
1000
VISUALSTYLE
  0
ACAD_PROXY_OBJECT
  5
36
102
{ACAD_XDICTIONARY
360
69
102
}
102
{ACAD_REACTORS
330
2A
102
}
330
2A
100
AcDbProxyObject
 90
      499
 91
      501
 95
       25
 70
     1
100
AcDbVisualStyle
  2
Brighten
 70
    12
 71
     2
 72
     2
 73
     0
 90
        0
 40
-0.6
 41
-30.0
 62
     5
 63
     7
421
 16777215
 74
     1
 91
        4
 64
     7
 65
   257
 75
     1
175
     1
 42
1.0
 92
        8
 66
     7
 43
1.0
 76
     1
 77
     6
 78
     2
 67
     7
 79
     5
170
     0
171
     0
290
     0
174
     0
 93
        1
 44
50.0
173
     0
291
     1
 45
0.0
1001
ACAD
1000
AcDbSavedByObjectVersion
1070
     0
1001
ACAD
1000
AcRTDxfName
1000
VISUALSTYLE
  0
ACAD_PROXY_OBJECT
  5
3A
102
{ACAD_XDICTIONARY
360
71
102
}
102
{ACAD_REACTORS
330
2A
102
}
330
2A
100
AcDbProxyObject
 90
      499
 91
      501
 95
       25
 70
     1
100
AcDbVisualStyle
  2
ColorChange
 70
    16
 71
     2
 72
     2
 73
     3
 90
        0
 40
-0.6
 41
-30.0
 62
     5
 63
     8
421
  8421504
 74
     1
 91
        4
 64
     7
 65
   257
 75
     1
175
     1
 42
1.0
 92
        8
 66
     8
424
  8421504
 43
1.0
 76
     1
 77
     6
 78
     2
 67
     7
 79
     5
170
     0
171
     0
290
     0
174
     0
 93
        1
 44
0.0
173
     0
291
     1
 45
0.0
1001
ACAD
1000
AcDbSavedByObjectVersion
1070
     0
1001
ACAD
1000
AcRTDxfName
1000
VISUALSTYLE
  0
ACAD_PROXY_OBJECT
  5
34
102
{ACAD_XDICTIONARY
360
65
102
}
102
{ACAD_REACTORS
330
2A
102
}
330
2A
100
AcDbProxyObject
 90
      499
 91
      501
 95
       25
 70
     1
100
AcDbVisualStyle
  2
Conceptual
 70
     9
 71
     3
 72
     2
 73
     0
 90
        0
 40
-0.6
 41
-30.0
 62
     5
 63
     7
421
 16777215
 74
     2
 91
        2
 64
     7
 65
   257
 75
     1
175
     1
 42
40.0
 92
        8
 66
     7
 43
1.0
 76
     1
 77
     6
 78
     2
 67
     7
 79
     3
170
     0
171
     0
290
     0
174
     0
 93
        1
 44
0.0
173
     0
291
     0
 45
0.0
1001
ACAD
1000
AcDbSavedByObjectVersion
1070
     0
1001
ACAD
1000
AcRTDxfName
1000
VISUALSTYLE
  0
ACAD_PROXY_OBJECT
  5
35
102
{ACAD_XDICTIONARY
360
67
102
}
102
{ACAD_REACTORS
330
2A
102
}
330
2A
100
AcDbProxyObject
 90
      499
 91
      501
 95
       25
 70
     1
100
AcDbVisualStyle
  2
Dim
 70
    11
 71
     2
 72
     2
 73
     0
 90
        0
 40
-0.6
 41
-30.0
 62
     5
 63
     7
421
 16777215
 74
     1
 91
        4
 64
     7
 65
   257
 75
     1
175
     1
 42
1.0
 92
        8
 66
     7
 43
1.0
 76
     1
 77
     6
 78
     2
 67
     7
 79
     5
170
     0
171
     0
290
     0
174
     0
 93
        1
 44
-50.0
173
     0
291
     1
 45
0.0
1001
ACAD
1000
AcDbSavedByObjectVersion
1070
     0
1001
ACAD
1000
AcRTDxfName
1000
VISUALSTYLE
  0
ACAD_PROXY_OBJECT
  5
39
102
{ACAD_XDICTIONARY
360
6F
102
}
102
{ACAD_REACTORS
330
2A
102
}
330
2A
100
AcDbProxyObject
 90
      499
 91
      501
 95
       25
 70
     1
100
AcDbVisualStyle
  2
Facepattern
 70
    15
 71
     2
 72
     2
 73
     0
 90
        0
 40
-0.6
 41
-30.0
 62
     5
 63
     7
421
 16777215
 74
     1
 91
        4
 64
     7
 65
   257
 75
     1
175
     1
 42
1.0
 92
        8
 66
     7
 43
1.0
 76
     1
 77
     6
 78
     2
 67
     7
 79
     5
170
     0
171
     0
290
     0
174
     0
 93
        1
 44
0.0
173
     0
291
     1
 45
0.0
1001
ACAD
1000
AcDbSavedByObjectVersion
1070
     0
1001
ACAD
1000
AcRTDxfName
1000
VISUALSTYLE
  0
ACAD_PROXY_OBJECT
  5
2B
102
{ACAD_XDICTIONARY
360
53
102
}
102
{ACAD_REACTORS
330
2A
102
}
330
2A
100
AcDbProxyObject
 90
      499
 91
      501
 95
       25
 70
     1
100
AcDbVisualStyle
  2
Flat
 70
     0
 71
     2
 72
     1
 73
     1
 90
        2
 40
-0.6
 41
30.0
 62
     5
 63
     7
421
 16777215
 74
     0
 91
        4
 64
     7
 65
   257
 75
     1
175
     1
 42
1.0
 92
        8
 66
     7
 43
1.0
 76
     1
 77
     6
 78
     2
 67
     7
 79
     5
170
     0
171
     0
290
     0
174
     0
 93
       13
 44
0.0
173
     0
291
     1
 45
0.0
1001
ACAD
1000
AcDbSavedByObjectVersion
1070
     0
1001
ACAD
1000
AcRTDxfName
1000
VISUALSTYLE
  0
ACAD_PROXY_OBJECT
  5
2C
102
{ACAD_XDICTIONARY
360
55
102
}
102
{ACAD_REACTORS
330
2A
102
}
330
2A
100
AcDbProxyObject
 90
      499
 91
      501
 95
       25
 70
     1
100
AcDbVisualStyle
  2
FlatWithEdges
 70
     1
 71
     2
 72
     1
 73
     1
 90
        2
 40
-0.6
 41
30.0
 62
     5
 63
     7
421
 16777215
 74
     1
 91
        4
 64
     7
 65
   257
 75
     1
175
     1
 42
1.0
 92
        0
 66
   257
 43
1.0
 76
     1
 77
     6
 78
     2
 67
     7
 79
     5
170
     0
171
     0
290
     0
174
     0
 93
       13
 44
0.0
173
     0
291
     1
 45
0.0
1001
ACAD
1000
AcDbSavedByObjectVersion
1070
     0
1001
ACAD
1000
AcRTDxfName
1000
VISUALSTYLE
  0
ACAD_PROXY_OBJECT
  5
2D
102
{ACAD_XDICTIONARY
360
57
102
}
102
{ACAD_REACTORS
330
2A
102
}
330
2A
100
AcDbProxyObject
 90
      499
 91
      501
 95
       25
 70
     1
100
AcDbVisualStyle
  2
Gouraud
 70
     2
 71
     2
 72
     2
 73
     1
 90
        2
 40
-0.6
 41
30.0
 62
     5
 63
     7
421
 16777215
 74
     0
 91
        4
 64
     7
 65
   257
 75
     1
175
     1
 42
1.0
 92
        0
 66
     7
 43
1.0
 76
     1
 77
     6
 78
     2
 67
     7
 79
     5
170
     0
171
     0
290
     0
174
     0
 93
       13
 44
0.0
173
     0
291
     1
 45
0.0
1001
ACAD
1000
AcDbSavedByObjectVersion
1070
     0
1001
ACAD
1000
AcRTDxfName
1000
VISUALSTYLE
  0
ACAD_PROXY_OBJECT
  5
2E
102
{ACAD_XDICTIONARY
360
59
102
}
102
{ACAD_REACTORS
330
2A
102
}
330
2A
100
AcDbProxyObject
 90
      499
 91
      501
 95
       25
 70
     1
100
AcDbVisualStyle
  2
GouraudWithEdges
 70
     3
 71
     2
 72
     2
 73
     1
 90
        2
 40
-0.6
 41
30.0
 62
     5
 63
     7
421
 16777215
 74
     1
 91
        4
 64
     7
 65
   257
 75
     1
175
     1
 42
1.0
 92
        0
 66
   257
 43
1.0
 76
     1
 77
     6
 78
     2
 67
     7
 79
     5
170
     0
171
     0
290
     0
174
     0
 93
       13
 44
0.0
173
     0
291
     1
 45
0.0
1001
ACAD
1000
AcDbSavedByObjectVersion
1070
     0
1001
ACAD
1000
AcRTDxfName
1000
VISUALSTYLE
  0
ACAD_PROXY_OBJECT
  5
38
102
{ACAD_XDICTIONARY
360
6D
102
}
102
{ACAD_REACTORS
330
2A
102
}
330
2A
100
AcDbProxyObject
 90
      499
 91
      501
 95
       25
 70
     1
100
AcDbVisualStyle
  2
Linepattern
 70
    14
 71
     2
 72
     2
 73
     0
 90
        0
 40
-0.6
 41
-30.0
 62
     5
 63
     7
421
 16777215
 74
     1
 91
        4
 64
     7
 65
   257
 75
     7
175
     7
 42
1.0
 92
        8
 66
     7
 43
1.0
 76
     1
 77
     6
 78
     2
 67
     7
 79
     5
170
     0
171
     0
290
     0
174
     0
 93
        1
 44
0.0
173
     0
291
     1
 45
0.0
1001
ACAD
1000
AcDbSavedByObjectVersion
1070
     0
1001
ACAD
1000
AcRTDxfName
1000
VISUALSTYLE
  0
ACAD_PROXY_OBJECT
  5
33
102
{ACAD_XDICTIONARY
360
63
102
}
102
{ACAD_REACTORS
330
2A
102
}
330
2A
100
AcDbProxyObject
 90
      499
 91
      501
 95
       25
 70
     1
100
AcDbVisualStyle
  2
Realistic
 70
     8
 71
     2
 72
     2
 73
     0
 90
        0
 40
-0.6
 41
-30.0
 62
     5
 63
     7
421
 16777215
 74
     1
 91
        0
 64
     7
 65
   257
 75
     1
175
     1
 42
1.0
 92
        8
 66
     8
424
  7895160
 43
1.0
 76
     1
 77
     6
 78
     2
 67
     7
 79
     5
170
     0
171
     0
290
     0
174
     0
 93
       13
 44
0.0
173
     0
291
     0
 45
0.0
1001
ACAD
1000
AcDbSavedByObjectVersion
1070
     0
1001
ACAD
1000
AcRTDxfName
1000
VISUALSTYLE
  0
ACAD_PROXY_OBJECT
  5
37
102
{ACAD_XDICTIONARY
360
6B
102
}
102
{ACAD_REACTORS
330
2A
102
}
330
2A
100
AcDbProxyObject
 90
      499
 91
      501
 95
       25
 70
     1
100
AcDbVisualStyle
  2
Thicken
 70
    13
 71
     2
 72
     2
 73
     0
 90
        0
 40
-0.6
 41
-30.0
 62
     5
 63
     7
421
 16777215
 74
     1
 91
        4
 64
     7
 65
   257
 75
     1
175
     1
 42
1.0
 92
       12
 66
     7
 43
1.0
 76
     1
 77
     6
 78
     2
 67
     7
 79
     5
170
     0
171
     0
290
     0
174
     0
 93
        1
 44
0.0
173
     0
291
     1
 45
0.0
1001
ACAD
1000
AcDbSavedByObjectVersion
1070
     0
1001
ACAD
1000
AcRTDxfName
1000
VISUALSTYLE
  0
DICTIONARYVAR
  5
82
102
{ACAD_REACTORS
330
81
102
}
330
81
100
DictionaryVariables
280
     0
  1
STANDARD
  0
DICTIONARYVAR
  5
84
102
{ACAD_REACTORS
330
81
102
}
330
81
100
DictionaryVariables
280
     0
  1
2
  0
DICTIONARYVAR
  5
83
102
{ACAD_REACTORS
330
81
102
}
330
81
100
DictionaryVariables
280
     0
  1
1
  0
DICTIONARYVAR
  5
85
102
{ACAD_REACTORS
330
81
102
}
330
81
100
DictionaryVariables
280
     0
  1

  0
DICTIONARY
  5
89
330
1E
100
AcDbDictionary
280
     1
281
     1
  3
ACAD_XREC_ROUNDTRIP
360
8A
  0
DICTIONARY
  5
8D
330
26
100
AcDbDictionary
280
     1
281
     1
  3
ACAD_XREC_ROUNDTRIP
360
8E
  0
DICTIONARY
  5
8B
330
22
100
AcDbDictionary
280
     1
281
     1
  3
ACAD_XREC_ROUNDTRIP
360
8C
  0
DICTIONARY
  5
75
330
3D
100
AcDbDictionary
280
     1
281
     1
  3
ACAD_XREC_ROUNDTRIP
360
76
  0
DICTIONARY
  5
73
330
3C
100
AcDbDictionary
280
     1
281
     1
  3
ACAD_XREC_ROUNDTRIP
360
74
  0
DICTIONARY
  5
77
330
3E
100
AcDbDictionary
280
     1
281
     1
  3
ACAD_XREC_ROUNDTRIP
360
78
  0
DICTIONARY
  5
5B
330
2F
100
AcDbDictionary
280
     1
281
     1
  3
ACAD_XREC_ROUNDTRIP
360
5C
  0
DICTIONARY
  5
5F
330
31
100
AcDbDictionary
280
     1
281
     1
  3
ACAD_XREC_ROUNDTRIP
360
60
  0
DICTIONARY
  5
5D
330
30
100
AcDbDictionary
280
     1
281
     1
  3
ACAD_XREC_ROUNDTRIP
360
5E
  0
DICTIONARY
  5
61
330
32
100
AcDbDictionary
280
     1
281
     1
  3
ACAD_XREC_ROUNDTRIP
360
62
  0
DICTIONARY
  5
69
330
36
100
AcDbDictionary
280
     1
281
     1
  3
ACAD_XREC_ROUNDTRIP
360
6A
  0
DICTIONARY
  5
71
330
3A
100
AcDbDictionary
280
     1
281
     1
  3
ACAD_XREC_ROUNDTRIP
360
72
  0
DICTIONARY
  5
65
330
34
100
AcDbDictionary
280
     1
281
     1
  3
ACAD_XREC_ROUNDTRIP
360
66
  0
DICTIONARY
  5
67
330
35
100
AcDbDictionary
280
     1
281
     1
  3
ACAD_XREC_ROUNDTRIP
360
68
  0
DICTIONARY
  5
6F
330
39
100
AcDbDictionary
280
     1
281
     1
  3
ACAD_XREC_ROUNDTRIP
360
70
  0
DICTIONARY
  5
53
330
2B
100
AcDbDictionary
280
     1
281
     1
  3
ACAD_XREC_ROUNDTRIP
360
54
  0
DICTIONARY
  5
55
330
2C
100
AcDbDictionary
280
     1
281
     1
  3
ACAD_XREC_ROUNDTRIP
360
56
  0
DICTIONARY
  5
57
330
2D
100
AcDbDictionary
280
     1
281
     1
  3
ACAD_XREC_ROUNDTRIP
360
58
  0
DICTIONARY
  5
59
330
2E
100
AcDbDictionary
280
     1
281
     1
  3
ACAD_XREC_ROUNDTRIP
360
5A
  0
DICTIONARY
  5
6D
330
38
100
AcDbDictionary
280
     1
281
     1
  3
ACAD_XREC_ROUNDTRIP
360
6E
  0
DICTIONARY
  5
63
330
33
100
AcDbDictionary
280
     1
281
     1
  3
ACAD_XREC_ROUNDTRIP
360
64
  0
DICTIONARY
  5
6B
330
37
100
AcDbDictionary
280
     1
281
     1
  3
ACAD_XREC_ROUNDTRIP
360
6C
  0
XRECORD
  5
8A
102
{ACAD_REACTORS
330
89
102
}
330
89
100
AcDbXrecord
280
     1
102
SHADEPLOT
 70
     0
102
SHADEPLOTRESLEVEL
 70
     2
102
SHADEPLOTCUSTOMDPI
 70
   300
  0
XRECORD
  5
8E
102
{ACAD_REACTORS
330
8D
102
}
330
8D
100
AcDbXrecord
280
     1
102
SHADEPLOT
 70
     0
102
SHADEPLOTRESLEVEL
 70
     2
102
SHADEPLOTCUSTOMDPI
 70
   300
  0
XRECORD
  5
8C
102
{ACAD_REACTORS
330
8B
102
}
330
8B
100
AcDbXrecord
280
     1
102
SHADEPLOT
 70
     0
102
SHADEPLOTRESLEVEL
 70
     2
102
SHADEPLOTCUSTOMDPI
 70
   300
  0
XRECORD
  5
76
102
{ACAD_REACTORS
330
75
102
}
330
75
100
AcDbXrecord
280
     1
102
MATERIAL
148
0.0
149
0.0
149
0.0
 93
        0
 94
      127
282
     0
 72
     1
 77
     1
171
     1
175
     1
179
     1
273
     0
  0
XRECORD
  5
74
102
{ACAD_REACTORS
330
73
102
}
330
73
100
AcDbXrecord
280
     1
102
MATERIAL
148
0.0
149
0.0
149
0.0
 93
        0
 94
      127
282
     0
 72
     1
 77
     1
171
     1
175
     1
179
     1
273
     0
  0
XRECORD
  5
78
102
{ACAD_REACTORS
330
77
102
}
330
77
100
AcDbXrecord
280
     1
102
MATERIAL
148
0.0
149
0.0
149
0.0
 93
        0
 94
      127
282
     0
 72
     1
 77
     1
171
     1
175
     1
179
     1
273
     0
  0
XRECORD
  5
5C
102
{ACAD_REACTORS
330
5B
102
}
330
5B
100
AcDbXrecord
280
     1
102
RTVSPropertyOp0
 70
     1
102
RTVSPropertyOp1
 70
     1
102
RTVSPropertyOp2
 70
     1
102
RTVSPropertyOp3
 70
     1
102
RTVSPropertyOp4
 70
     1
102
RTVSPropertyOp5
 70
     1
102
RTVSPropertyOp6
 70
     1
102
RTVSPropertyOp7
 70
     1
102
RTVSPropertyOp8
 70
     1
102
RTVSPropertyOp9
 70
     1
102
RTVSPropertyOp10
 70
     1
102
RTVSPropertyOp11
 70
     1
102
RTVSPropertyOp12
 70
     1
102
RTVSPropertyOp13
 70
     1
102
RTVSPropertyOp14
 70
     1
102
RTVSPropertyOp15
 70
     1
102
RTVSPropertyOp16
 70
     1
102
RTVSPropertyOp17
 70
     1
102
RTVSPropertyOp18
 70
     1
102
RTVSPropertyOp19
 70
     1
102
RTVSPropertyOp20
 70
     1
102
RTVSPropertyOp21
 70
     1
102
RTVSPropertyOp22
 70
     1
102
RTVSPropertyOp23
 70
     1
102
RTVSPropertyOp24
 70
     1
102
RTVSPropertyOp25
 70
     1
102
RTVSPropertyOp26
 70
     1
102
RTVSPropertyOp27
 70
     1
  0
XRECORD
  5
60
102
{ACAD_REACTORS
330
5F
102
}
330
5F
100
AcDbXrecord
280
     1
102
RTVSPropertyOp0
 70
     1
102
RTVSPropertyOp1
 70
     1
102
RTVSPropertyOp2
 70
     1
102
RTVSPropertyOp3
 70
     1
102
RTVSPropertyOp4
 70
     1
102
RTVSPropertyOp5
 70
     1
102
RTVSPropertyOp6
 70
     1
102
RTVSPropertyOp7
 70
     1
102
RTVSPropertyOp8
 70
     1
102
RTVSPropertyOp9
 70
     1
102
RTVSPropertyOp10
 70
     1
102
RTVSPropertyOp11
 70
     1
102
RTVSPropertyOp12
 70
     1
102
RTVSPropertyOp13
 70
     1
102
RTVSPropertyOp14
 70
     1
102
RTVSPropertyOp15
 70
     1
102
RTVSPropertyOp16
 70
     1
102
RTVSPropertyOp17
 70
     1
102
RTVSPropertyOp18
 70
     1
102
RTVSPropertyOp19
 70
     1
102
RTVSPropertyOp20
 70
     1
102
RTVSPropertyOp21
 70
     1
102
RTVSPropertyOp22
 70
     1
102
RTVSPropertyOp23
 70
     1
102
RTVSPropertyOp24
 70
     1
102
RTVSPropertyOp25
 70
     1
102
RTVSPropertyOp26
 70
     1
102
RTVSPropertyOp27
 70
     1
  0
XRECORD
  5
5E
102
{ACAD_REACTORS
330
5D
102
}
330
5D
100
AcDbXrecord
280
     1
102
RTVSPropertyOp0
 70
     1
102
RTVSPropertyOp1
 70
     1
102
RTVSPropertyOp2
 70
     1
102
RTVSPropertyOp3
 70
     1
102
RTVSPropertyOp4
 70
     1
102
RTVSPropertyOp5
 70
     1
102
RTVSPropertyOp6
 70
     1
102
RTVSPropertyOp7
 70
     1
102
RTVSPropertyOp8
 70
     1
102
RTVSPropertyOp9
 70
     1
102
RTVSPropertyOp10
 70
     1
102
RTVSPropertyOp11
 70
     1
102
RTVSPropertyOp12
 70
     1
102
RTVSPropertyOp13
 70
     1
102
RTVSPropertyOp14
 70
     1
102
RTVSPropertyOp15
 70
     1
102
RTVSPropertyOp16
 70
     1
102
RTVSPropertyOp17
 70
     1
102
RTVSPropertyOp18
 70
     1
102
RTVSPropertyOp19
 70
     1
102
RTVSPropertyOp20
 70
     1
102
RTVSPropertyOp21
 70
     1
102
RTVSPropertyOp22
 70
     1
102
RTVSPropertyOp23
 70
     1
102
RTVSPropertyOp24
 70
     1
102
RTVSPropertyOp25
 70
     1
102
RTVSPropertyOp26
 70
     1
102
RTVSPropertyOp27
 70
     1
  0
XRECORD
  5
62
102
{ACAD_REACTORS
330
61
102
}
330
61
100
AcDbXrecord
280
     1
102
RTVSPropertyOp0
 70
     1
102
RTVSPropertyOp1
 70
     1
102
RTVSPropertyOp2
 70
     1
102
RTVSPropertyOp3
 70
     1
102
RTVSPropertyOp4
 70
     1
102
RTVSPropertyOp5
 70
     1
102
RTVSPropertyOp6
 70
     1
102
RTVSPropertyOp7
 70
     1
102
RTVSPropertyOp8
 70
     1
102
RTVSPropertyOp9
 70
     1
102
RTVSPropertyOp10
 70
     1
102
RTVSPropertyOp11
 70
     1
102
RTVSPropertyOp12
 70
     1
102
RTVSPropertyOp13
 70
     1
102
RTVSPropertyOp14
 70
     1
102
RTVSPropertyOp15
 70
     1
102
RTVSPropertyOp16
 70
     1
102
RTVSPropertyOp17
 70
     1
102
RTVSPropertyOp18
 70
     1
102
RTVSPropertyOp19
 70
     1
102
RTVSPropertyOp20
 70
     1
102
RTVSPropertyOp21
 70
     1
102
RTVSPropertyOp22
 70
     1
102
RTVSPropertyOp23
 70
     1
102
RTVSPropertyOp24
 70
     1
102
RTVSPropertyOp25
 70
     1
102
RTVSPropertyOp26
 70
     1
102
RTVSPropertyOp27
 70
     1
  0
XRECORD
  5
6A
102
{ACAD_REACTORS
330
69
102
}
330
69
100
AcDbXrecord
280
     1
102
RTVSPropertyOp0
 70
     1
102
RTVSPropertyOp1
 70
     1
102
RTVSPropertyOp2
 70
     1
102
RTVSPropertyOp3
 70
     1
102
RTVSPropertyOp4
 70
     1
102
RTVSPropertyOp5
 70
     1
102
RTVSPropertyOp6
 70
     1
102
RTVSPropertyOp7
 70
     1
102
RTVSPropertyOp8
 70
     1
102
RTVSPropertyOp9
 70
     1
102
RTVSPropertyOp10
 70
     1
102
RTVSPropertyOp11
 70
     1
102
RTVSPropertyOp12
 70
     1
102
RTVSPropertyOp13
 70
     1
102
RTVSPropertyOp14
 70
     1
102
RTVSPropertyOp15
 70
     1
102
RTVSPropertyOp16
 70
     1
102
RTVSPropertyOp17
 70
     1
102
RTVSPropertyOp18
 70
     1
102
RTVSPropertyOp19
 70
     1
102
RTVSPropertyOp20
 70
     1
102
RTVSPropertyOp21
 70
     1
102
RTVSPropertyOp22
 70
     1
102
RTVSPropertyOp23
 70
     1
102
RTVSPropertyOp24
 70
     1
102
RTVSPropertyOp25
 70
     1
102
RTVSPropertyOp26
 70
     1
102
RTVSPropertyOp27
 70
     1
  0
XRECORD
  5
72
102
{ACAD_REACTORS
330
71
102
}
330
71
100
AcDbXrecord
280
     1
102
RTVSPropertyOp0
 70
     1
102
RTVSPropertyOp1
 70
     1
102
RTVSPropertyOp2
 70
     1
102
RTVSPropertyOp3
 70
     1
102
RTVSPropertyOp4
 70
     1
102
RTVSPropertyOp5
 70
     1
102
RTVSPropertyOp6
 70
     1
102
RTVSPropertyOp7
 70
     1
102
RTVSPropertyOp8
 70
     1
102
RTVSPropertyOp9
 70
     1
102
RTVSPropertyOp10
 70
     1
102
RTVSPropertyOp11
 70
     1
102
RTVSPropertyOp12
 70
     1
102
RTVSPropertyOp13
 70
     1
102
RTVSPropertyOp14
 70
     1
102
RTVSPropertyOp15
 70
     1
102
RTVSPropertyOp16
 70
     1
102
RTVSPropertyOp17
 70
     1
102
RTVSPropertyOp18
 70
     1
102
RTVSPropertyOp19
 70
     1
102
RTVSPropertyOp20
 70
     1
102
RTVSPropertyOp21
 70
     1
102
RTVSPropertyOp22
 70
     1
102
RTVSPropertyOp23
 70
     1
102
RTVSPropertyOp24
 70
     1
102
RTVSPropertyOp25
 70
     1
102
RTVSPropertyOp26
 70
     1
102
RTVSPropertyOp27
 70
     1
  0
XRECORD
  5
66
102
{ACAD_REACTORS
330
65
102
}
330
65
100
AcDbXrecord
280
     1
102
RTVSPropertyOp0
 70
     1
102
RTVSPropertyOp1
 70
     1
102
RTVSPropertyOp2
 70
     1
102
RTVSPropertyOp3
 70
     1
102
RTVSPropertyOp4
 70
     1
102
RTVSPropertyOp5
 70
     1
102
RTVSPropertyOp6
 70
     1
102
RTVSPropertyOp7
 70
     1
102
RTVSPropertyOp8
 70
     1
102
RTVSPropertyOp9
 70
     1
102
RTVSPropertyOp10
 70
     1
102
RTVSPropertyOp11
 70
     1
102
RTVSPropertyOp12
 70
     1
102
RTVSPropertyOp13
 70
     1
102
RTVSPropertyOp14
 70
     1
102
RTVSPropertyOp15
 70
     1
102
RTVSPropertyOp16
 70
     1
102
RTVSPropertyOp17
 70
     1
102
RTVSPropertyOp18
 70
     1
102
RTVSPropertyOp19
 70
     1
102
RTVSPropertyOp20
 70
     1
102
RTVSPropertyOp21
 70
     1
102
RTVSPropertyOp22
 70
     1
102
RTVSPropertyOp23
 70
     1
102
RTVSPropertyOp24
 70
     1
102
RTVSPropertyOp25
 70
     1
102
RTVSPropertyOp26
 70
     1
102
RTVSPropertyOp27
 70
     1
  0
XRECORD
  5
68
102
{ACAD_REACTORS
330
67
102
}
330
67
100
AcDbXrecord
280
     1
102
RTVSPropertyOp0
 70
     1
102
RTVSPropertyOp1
 70
     1
102
RTVSPropertyOp2
 70
     1
102
RTVSPropertyOp3
 70
     1
102
RTVSPropertyOp4
 70
     1
102
RTVSPropertyOp5
 70
     1
102
RTVSPropertyOp6
 70
     1
102
RTVSPropertyOp7
 70
     1
102
RTVSPropertyOp8
 70
     1
102
RTVSPropertyOp9
 70
     1
102
RTVSPropertyOp10
 70
     1
102
RTVSPropertyOp11
 70
     1
102
RTVSPropertyOp12
 70
     1
102
RTVSPropertyOp13
 70
     1
102
RTVSPropertyOp14
 70
     1
102
RTVSPropertyOp15
 70
     1
102
RTVSPropertyOp16
 70
     1
102
RTVSPropertyOp17
 70
     1
102
RTVSPropertyOp18
 70
     1
102
RTVSPropertyOp19
 70
     1
102
RTVSPropertyOp20
 70
     1
102
RTVSPropertyOp21
 70
     1
102
RTVSPropertyOp22
 70
     1
102
RTVSPropertyOp23
 70
     1
102
RTVSPropertyOp24
 70
     1
102
RTVSPropertyOp25
 70
     1
102
RTVSPropertyOp26
 70
     1
102
RTVSPropertyOp27
 70
     1
  0
XRECORD
  5
70
102
{ACAD_REACTORS
330
6F
102
}
330
6F
100
AcDbXrecord
280
     1
102
RTVSPropertyOp0
 70
     1
102
RTVSPropertyOp1
 70
     1
102
RTVSPropertyOp2
 70
     1
102
RTVSPropertyOp3
 70
     1
102
RTVSPropertyOp4
 70
     1
102
RTVSPropertyOp5
 70
     1
102
RTVSPropertyOp6
 70
     1
102
RTVSPropertyOp7
 70
     1
102
RTVSPropertyOp8
 70
     1
102
RTVSPropertyOp9
 70
     1
102
RTVSPropertyOp10
 70
     1
102
RTVSPropertyOp11
 70
     1
102
RTVSPropertyOp12
 70
     1
102
RTVSPropertyOp13
 70
     1
102
RTVSPropertyOp14
 70
     1
102
RTVSPropertyOp15
 70
     1
102
RTVSPropertyOp16
 70
     1
102
RTVSPropertyOp17
 70
     1
102
RTVSPropertyOp18
 70
     1
102
RTVSPropertyOp19
 70
     1
102
RTVSPropertyOp20
 70
     1
102
RTVSPropertyOp21
 70
     1
102
RTVSPropertyOp22
 70
     1
102
RTVSPropertyOp23
 70
     1
102
RTVSPropertyOp24
 70
     1
102
RTVSPropertyOp25
 70
     1
102
RTVSPropertyOp26
 70
     1
102
RTVSPropertyOp27
 70
     1
  0
XRECORD
  5
54
102
{ACAD_REACTORS
330
53
102
}
330
53
100
AcDbXrecord
280
     1
102
RTVSPropertyOp0
 70
     1
102
RTVSPropertyOp1
 70
     1
102
RTVSPropertyOp2
 70
     1
102
RTVSPropertyOp3
 70
     1
102
RTVSPropertyOp4
 70
     1
102
RTVSPropertyOp5
 70
     1
102
RTVSPropertyOp6
 70
     1
102
RTVSPropertyOp7
 70
     1
102
RTVSPropertyOp8
 70
     1
102
RTVSPropertyOp9
 70
     1
102
RTVSPropertyOp10
 70
     1
102
RTVSPropertyOp11
 70
     1
102
RTVSPropertyOp12
 70
     1
102
RTVSPropertyOp13
 70
     1
102
RTVSPropertyOp14
 70
     1
102
RTVSPropertyOp15
 70
     1
102
RTVSPropertyOp16
 70
     1
102
RTVSPropertyOp17
 70
     1
102
RTVSPropertyOp18
 70
     1
102
RTVSPropertyOp19
 70
     1
102
RTVSPropertyOp20
 70
     1
102
RTVSPropertyOp21
 70
     1
102
RTVSPropertyOp22
 70
     1
102
RTVSPropertyOp23
 70
     1
102
RTVSPropertyOp24
 70
     1
102
RTVSPropertyOp25
 70
     1
102
RTVSPropertyOp26
 70
     1
102
RTVSPropertyOp27
 70
     1
  0
XRECORD
  5
56
102
{ACAD_REACTORS
330
55
102
}
330
55
100
AcDbXrecord
280
     1
102
RTVSPropertyOp0
 70
     1
102
RTVSPropertyOp1
 70
     1
102
RTVSPropertyOp2
 70
     1
102
RTVSPropertyOp3
 70
     1
102
RTVSPropertyOp4
 70
     1
102
RTVSPropertyOp5
 70
     1
102
RTVSPropertyOp6
 70
     1
102
RTVSPropertyOp7
 70
     1
102
RTVSPropertyOp8
 70
     1
102
RTVSPropertyOp9
 70
     1
102
RTVSPropertyOp10
 70
     1
102
RTVSPropertyOp11
 70
     1
102
RTVSPropertyOp12
 70
     1
102
RTVSPropertyOp13
 70
     1
102
RTVSPropertyOp14
 70
     1
102
RTVSPropertyOp15
 70
     1
102
RTVSPropertyOp16
 70
     1
102
RTVSPropertyOp17
 70
     1
102
RTVSPropertyOp18
 70
     1
102
RTVSPropertyOp19
 70
     1
102
RTVSPropertyOp20
 70
     1
102
RTVSPropertyOp21
 70
     1
102
RTVSPropertyOp22
 70
     1
102
RTVSPropertyOp23
 70
     1
102
RTVSPropertyOp24
 70
     1
102
RTVSPropertyOp25
 70
     1
102
RTVSPropertyOp26
 70
     1
102
RTVSPropertyOp27
 70
     1
  0
XRECORD
  5
58
102
{ACAD_REACTORS
330
57
102
}
330
57
100
AcDbXrecord
280
     1
102
RTVSPropertyOp0
 70
     1
102
RTVSPropertyOp1
 70
     1
102
RTVSPropertyOp2
 70
     1
102
RTVSPropertyOp3
 70
     1
102
RTVSPropertyOp4
 70
     1
102
RTVSPropertyOp5
 70
     1
102
RTVSPropertyOp6
 70
     1
102
RTVSPropertyOp7
 70
     1
102
RTVSPropertyOp8
 70
     1
102
RTVSPropertyOp9
 70
     1
102
RTVSPropertyOp10
 70
     1
102
RTVSPropertyOp11
 70
     1
102
RTVSPropertyOp12
 70
     1
102
RTVSPropertyOp13
 70
     1
102
RTVSPropertyOp14
 70
     1
102
RTVSPropertyOp15
 70
     1
102
RTVSPropertyOp16
 70
     1
102
RTVSPropertyOp17
 70
     1
102
RTVSPropertyOp18
 70
     1
102
RTVSPropertyOp19
 70
     1
102
RTVSPropertyOp20
 70
     1
102
RTVSPropertyOp21
 70
     1
102
RTVSPropertyOp22
 70
     1
102
RTVSPropertyOp23
 70
     1
102
RTVSPropertyOp24
 70
     1
102
RTVSPropertyOp25
 70
     1
102
RTVSPropertyOp26
 70
     1
102
RTVSPropertyOp27
 70
     1
  0
XRECORD
  5
5A
102
{ACAD_REACTORS
330
59
102
}
330
59
100
AcDbXrecord
280
     1
102
RTVSPropertyOp0
 70
     1
102
RTVSPropertyOp1
 70
     1
102
RTVSPropertyOp2
 70
     1
102
RTVSPropertyOp3
 70
     1
102
RTVSPropertyOp4
 70
     1
102
RTVSPropertyOp5
 70
     1
102
RTVSPropertyOp6
 70
     1
102
RTVSPropertyOp7
 70
     1
102
RTVSPropertyOp8
 70
     1
102
RTVSPropertyOp9
 70
     1
102
RTVSPropertyOp10
 70
     1
102
RTVSPropertyOp11
 70
     1
102
RTVSPropertyOp12
 70
     1
102
RTVSPropertyOp13
 70
     1
102
RTVSPropertyOp14
 70
     1
102
RTVSPropertyOp15
 70
     1
102
RTVSPropertyOp16
 70
     1
102
RTVSPropertyOp17
 70
     1
102
RTVSPropertyOp18
 70
     1
102
RTVSPropertyOp19
 70
     1
102
RTVSPropertyOp20
 70
     1
102
RTVSPropertyOp21
 70
     1
102
RTVSPropertyOp22
 70
     1
102
RTVSPropertyOp23
 70
     1
102
RTVSPropertyOp24
 70
     1
102
RTVSPropertyOp25
 70
     1
102
RTVSPropertyOp26
 70
     1
102
RTVSPropertyOp27
 70
     1
  0
XRECORD
  5
6E
102
{ACAD_REACTORS
330
6D
102
}
330
6D
100
AcDbXrecord
280
     1
102
RTVSPropertyOp0
 70
     1
102
RTVSPropertyOp1
 70
     1
102
RTVSPropertyOp2
 70
     1
102
RTVSPropertyOp3
 70
     1
102
RTVSPropertyOp4
 70
     1
102
RTVSPropertyOp5
 70
     1
102
RTVSPropertyOp6
 70
     1
102
RTVSPropertyOp7
 70
     1
102
RTVSPropertyOp8
 70
     1
102
RTVSPropertyOp9
 70
     1
102
RTVSPropertyOp10
 70
     1
102
RTVSPropertyOp11
 70
     1
102
RTVSPropertyOp12
 70
     1
102
RTVSPropertyOp13
 70
     1
102
RTVSPropertyOp14
 70
     1
102
RTVSPropertyOp15
 70
     1
102
RTVSPropertyOp16
 70
     1
102
RTVSPropertyOp17
 70
     1
102
RTVSPropertyOp18
 70
     1
102
RTVSPropertyOp19
 70
     1
102
RTVSPropertyOp20
 70
     1
102
RTVSPropertyOp21
 70
     1
102
RTVSPropertyOp22
 70
     1
102
RTVSPropertyOp23
 70
     1
102
RTVSPropertyOp24
 70
     1
102
RTVSPropertyOp25
 70
     1
102
RTVSPropertyOp26
 70
     1
102
RTVSPropertyOp27
 70
     1
  0
XRECORD
  5
64
102
{ACAD_REACTORS
330
63
102
}
330
63
100
AcDbXrecord
280
     1
102
RTVSPropertyOp0
 70
     1
102
RTVSPropertyOp1
 70
     1
102
RTVSPropertyOp2
 70
     1
102
RTVSPropertyOp3
 70
     1
102
RTVSPropertyOp4
 70
     1
102
RTVSPropertyOp5
 70
     1
102
RTVSPropertyOp6
 70
     1
102
RTVSPropertyOp7
 70
     1
102
RTVSPropertyOp8
 70
     1
102
RTVSPropertyOp9
 70
     1
102
RTVSPropertyOp10
 70
     1
102
RTVSPropertyOp11
 70
     1
102
RTVSPropertyOp12
 70
     1
102
RTVSPropertyOp13
 70
     1
102
RTVSPropertyOp14
 70
     1
102
RTVSPropertyOp15
 70
     1
102
RTVSPropertyOp16
 70
     1
102
RTVSPropertyOp17
 70
     1
102
RTVSPropertyOp18
 70
     1
102
RTVSPropertyOp19
 70
     1
102
RTVSPropertyOp20
 70
     1
102
RTVSPropertyOp21
 70
     1
102
RTVSPropertyOp22
 70
     1
102
RTVSPropertyOp23
 70
     1
102
RTVSPropertyOp24
 70
     1
102
RTVSPropertyOp25
 70
     1
102
RTVSPropertyOp26
 70
     1
102
RTVSPropertyOp27
 70
     1
  0
XRECORD
  5
6C
102
{ACAD_REACTORS
330
6B
102
}
330
6B
100
AcDbXrecord
280
     1
102
RTVSPropertyOp0
 70
     1
102
RTVSPropertyOp1
 70
     1
102
RTVSPropertyOp2
 70
     1
102
RTVSPropertyOp3
 70
     1
102
RTVSPropertyOp4
 70
     1
102
RTVSPropertyOp5
 70
     1
102
RTVSPropertyOp6
 70
     1
102
RTVSPropertyOp7
 70
     1
102
RTVSPropertyOp8
 70
     1
102
RTVSPropertyOp9
 70
     1
102
RTVSPropertyOp10
 70
     1
102
RTVSPropertyOp11
 70
     1
102
RTVSPropertyOp12
 70
     1
102
RTVSPropertyOp13
 70
     1
102
RTVSPropertyOp14
 70
     1
102
RTVSPropertyOp15
 70
     1
102
RTVSPropertyOp16
 70
     1
102
RTVSPropertyOp17
 70
     1
102
RTVSPropertyOp18
 70
     1
102
RTVSPropertyOp19
 70
     1
102
RTVSPropertyOp20
 70
     1
102
RTVSPropertyOp21
 70
     1
102
RTVSPropertyOp22
 70
     1
102
RTVSPropertyOp23
 70
     1
102
RTVSPropertyOp24
 70
     1
102
RTVSPropertyOp25
 70
     1
102
RTVSPropertyOp26
 70
     1
102
RTVSPropertyOp27
 70
     1
  0
ENDSEC
  0
EOF
