  0
SECTION
  2
HEADER
  9
$ACADVER
  1
AC1015
  9
$ACADMAINTVER
 70
    20
  9
$DWGCODEPAGE
  3
ANSI_1252
  9
$INSBASE
 10
0.0
 20
0.0
 30
0.0
  9
$EXTMIN
 10
-6.767102665351842
 20
-2.977235477180524
 30
-0.0015258207003583
  9
$EXTMAX
 10
6.69155989560766
 20
2.415791762774503
 30
0.0000000349246037
  9
$LIMMIN
 10
0.0
 20
0.0
  9
$LIMMAX
 10
12.0
 20
9.0
  9
$ORTHOMODE
 70
     0
  9
$REGENMODE
 70
     1
  9
$FILLMODE
 70
     1
  9
$QTEXTMODE
 70
     0
  9
$MIRRTEXT
 70
     1
  9
$LTSCALE
 40
1.0
  9
$ATTMODE
 70
     1
  9
$TEXTSIZE
 40
0.2
  9
$TRACEWID
 40
0.05
  9
$TEXTSTYLE
  7
Standard
  9
$CLAYER
  8
0
  9
$CELTYPE
  6
ByLayer
  9
$CECOLOR
 62
   256
  9
$CELTSCALE
 40
1.0
  9
$DISPSILH
 70
     0
  9
$DIMSCALE
 40
1.0
  9
$DIMASZ
 40
0.18
  9
$DIMEXO
 40
0.0625
  9
$DIMDLI
 40
0.38
  9
$DIMRND
 40
0.0
  9
$DIMDLE
 40
0.0
  9
$DIMEXE
 40
0.18
  9
$DIMTP
 40
0.0
  9
$DIMTM
 40
0.0
  9
$DIMTXT
 40
0.18
  9
$DIMCEN
 40
0.09
  9
$DIMTSZ
 40
0.0
  9
$DIMTOL
 70
     0
  9
$DIMLIM
 70
     0
  9
$DIMTIH
 70
     1
  9
$DIMTOH
 70
     1
  9
$DIMSE1
 70
     0
  9
$DIMSE2
 70
     0
  9
$DIMTAD
 70
     0
  9
$DIMZIN
 70
     0
  9
$DIMBLK
  1

  9
$DIMASO
 70
     1
  9
$DIMSHO
 70
     1
  9
$DIMPOST
  1

  9
$DIMAPOST
  1

  9
$DIMALT
 70
     0
  9
$DIMALTD
 70
     2
  9
$DIMALTF
 40
25.4
  9
$DIMLFAC
 40
1.0
  9
$DIMTOFL
 70
     0
  9
$DIMTVP
 40
0.0
  9
$DIMTIX
 70
     0
  9
$DIMSOXD
 70
     0
  9
$DIMSAH
 70
     0
  9
$DIMBLK1
  1

  9
$DIMBLK2
  1

  9
$DIMSTYLE
  2
Standard
  9
$DIMCLRD
 70
     0
  9
$DIMCLRE
 70
     0
  9
$DIMCLRT
 70
     0
  9
$DIMTFAC
 40
1.0
  9
$DIMGAP
 40
0.09
  9
$DIMJUST
 70
     0
  9
$DIMSD1
 70
     0
  9
$DIMSD2
 70
     0
  9
$DIMTOLJ
 70
     1
  9
$DIMTZIN
 70
     0
  9
$DIMALTZ
 70
     0
  9
$DIMALTTZ
 70
     0
  9
$DIMUPT
 70
     0
  9
$DIMDEC
 70
     4
  9
$DIMTDEC
 70
     4
  9
$DIMALTU
 70
     2
  9
$DIMALTTD
 70
     2
  9
$DIMTXSTY
  7
Standard
  9
$DIMAUNIT
 70
     0
  9
$DIMADEC
 70
     0
  9
$DIMALTRND
 40
0.0
  9
$DIMAZIN
 70
     0
  9
$DIMDSEP
 70
    46
  9
$DIMATFIT
 70
     3
  9
$DIMFRAC
 70
     0
  9
$DIMLDRBLK
  1

  9
$DIMLUNIT
 70
     2
  9
$DIMLWD
 70
    -2
  9
$DIMLWE
 70
    -2
  9
$DIMTMOVE
 70
     0
  9
$LUNITS
 70
     2
  9
$LUPREC
 70
     4
  9
$SKETCHINC
 40
0.1
  9
$FILLETRAD
 40
0.5
  9
$AUNITS
 70
     0
  9
$AUPREC
 70
     0
  9
$MENU
  1
.
  9
$ELEVATION
 40
0.0
  9
$PELEVATION
 40
0.0
  9
$THICKNESS
 40
0.0
  9
$LIMCHECK
 70
     0
  9
$CHAMFERA
 40
0.5
  9
$CHAMFERB
 40
0.5
  9
$CHAMFERC
 40
1.0
  9
$CHAMFERD
 40
0.0
  9
$SKPOLY
 70
     0
  9
$TDCREATE
 40
2455469.721640613
  9
$TDUCREATE
 40
2455469.638307280
  9
$TDUPDATE
 40
2455469.721928472
  9
$TDUUPDATE
 40
2455469.638595139
  9
$TDINDWG
 40
0.0001986458
  9
$TDUSRTIMER
 40
0.0001986111
  9
$USRTIMER
 70
     1
  9
$ANGBASE
 50
0.0
  9
$ANGDIR
 70
     0
  9
$PDMODE
 70
     0
  9
$PDSIZE
 40
0.0
  9
$PLINEWID
 40
0.0
  9
$SPLFRAME
 70
     0
  9
$SPLINETYPE
 70
     6
  9
$SPLINESEGS
 70
     8
  9
$HANDSEED
  5
8F
  9
$SURFTAB1
 70
     6
  9
$SURFTAB2
 70
     6
  9
$SURFTYPE
 70
     6
  9
$SURFU
 70
     6
  9
$SURFV
 70
     6
  9
$UCSBASE
  2

  9
$UCSNAME
  2

  9
$UCSORG
 10
0.0
 20
0.0
 30
0.0
  9
$UCSXDIR
 10
1.0
 20
0.0
 30
0.0
  9
$UCSYDIR
 10
0.0
 20
1.0
 30
0.0
  9
$UCSORTHOREF
  2

  9
$UCSORTHOVIEW
 70
     0
  9
$UCSORGTOP
 10
0.0
 20
0.0
 30
0.0
  9
$UCSORGBOTTOM
 10
0.0
 20
0.0
 30
0.0
  9
$UCSORGLEFT
 10
0.0
 20
0.0
 30
0.0
  9
$UCSORGRIGHT
 10
0.0
 20
0.0
 30
0.0
  9
$UCSORGFRONT
 10
0.0
 20
0.0
 30
0.0
  9
$UCSORGBACK
 10
0.0
 20
0.0
 30
0.0
  9
$PUCSBASE
  2

  9
$PUCSNAME
  2

  9
$PUCSORG
 10
0.0
 20
0.0
 30
0.0
  9
$PUCSXDIR
 10
1.0
 20
0.0
 30
0.0
  9
$PUCSYDIR
 10
0.0
 20
1.0
 30
0.0
  9
$PUCSORTHOREF
  2

  9
$PUCSORTHOVIEW
 70
     0
  9
$PUCSORGTOP
 10
0.0
 20
0.0
 30
0.0
  9
$PUCSORGBOTTOM
 10
0.0
 20
0.0
 30
0.0
  9
$PUCSORGLEFT
 10
0.0
 20
0.0
 30
0.0
  9
$PUCSORGRIGHT
 10
0.0
 20
0.0
 30
0.0
  9
$PUCSORGFRONT
 10
0.0
 20
0.0
 30
0.0
  9
$PUCSORGBACK
 10
0.0
 20
0.0
 30
0.0
  9
$USERI1
 70
     0
  9
$USERI2
 70
     0
  9
$USERI3
 70
     0
  9
$USERI4
 70
     0
  9
$USERI5
 70
     0
  9
$USERR1
 40
0.0
  9
$USERR2
 40
0.0
  9
$USERR3
 40
0.0
  9
$USERR4
 40
0.0
  9
$USERR5
 40
0.0
  9
$WORLDVIEW
 70
     1
  9
$SHADEDGE
 70
     3
  9
$SHADEDIF
 70
    70
  9
$TILEMODE
 70
     1
  9
$MAXACTVP
 70
    64
  9
$PINSBASE
 10
0.0
 20
0.0
 30
0.0
  9
$PLIMCHECK
 70
     0
  9
$PEXTMIN
 10
1.000000000000000E+20
 20
1.000000000000000E+20
 30
1.000000000000000E+20
  9
$PEXTMAX
 10
-1.000000000000000E+20
 20
-1.000000000000000E+20
 30
-1.000000000000000E+20
  9
$PLIMMIN
 10
0.0
 20
0.0
  9
$PLIMMAX
 10
12.0
 20
9.0
  9
$UNITMODE
 70
     0
  9
$VISRETAIN
 70
     1
  9
$PLINEGEN
 70
     0
  9
$PSLTSCALE
 70
     1
  9
$TREEDEPTH
 70
  3020
  9
$CMLSTYLE
  2
Standard
  9
$CMLJUST
 70
     0
  9
$CMLSCALE
 40
1.0
  9
$PROXYGRAPHICS
 70
     1
  9
$MEASUREMENT
 70
     0
  9
$CELWEIGHT
370
    -1
  9
$ENDCAPS
280
     0
  9
$JOINSTYLE
280
     0
  9
$LWDISPLAY
290
     0
  9
$INSUNITS
 70
     5
  9
$HYPERLINKBASE
  1

  9
$STYLESHEET
  1

  9
$XEDIT
290
     1
  9
$CEPSNTYPE
380
     0
  9
$PSTYLEMODE
290
     1
  9
$FINGERPRINTGUID
  2
{9FE33EB4-3D5D-46DA-AAB6-0B8D8775C7A7}
  9
$VERSIONGUID
  2
{011F12CA-5311-4C17-A601-50D8DF330FD1}
  9
$EXTNAMES
290
     1
  9
$PSVPSCALE
 40
0.0
  9
$OLESTARTUP
290
     0
  0
ENDSEC
  0
SECTION
  2
CLASSES
  0
CLASS
  1
ACDBDICTIONARYWDFLT
  2
AcDbDictionaryWithDefault
  3
ObjectDBX Classes
 90
        0
280
     0
281
     0
  0
CLASS
  1
VISUALSTYLE
  2
AcDbVisualStyle
  3
ObjectDBX Classes
 90
     4095
280
     0
281
     0
  0
CLASS
  1
MATERIAL
  2
AcDbMaterial
  3
ObjectDBX Classes
 90
        0
280
     0
281
     0
  0
CLASS
  1
TABLESTYLE
  2
AcDbTableStyle
  3
ObjectDBX Classes
 90
     2047
280
     0
281
     0
  0
CLASS
  1
DICTIONARYVAR
  2
AcDbDictionaryVar
  3
ObjectDBX Classes
 90
        0
280
     0
281
     0
  0
CLASS
  1
ACDBPLACEHOLDER
  2
AcDbPlaceHolder
  3
ObjectDBX Classes
 90
        0
280
     0
281
     0
  0
CLASS
  1
LAYOUT
  2
AcDbLayout
  3
ObjectDBX Classes
 90
        0
280
     0
281
     0
  0
ENDSEC
  0
SECTION
  2
TABLES
  0
TABLE
  2
VPORT
  5
8
330
0
100
AcDbSymbolTable
 70
     2
  0
VPORT
  5
86
330
8
100
AcDbSymbolTableRecord
100
AcDbViewportTableRecord
  2
*Active
 70
     0
 10
0.0
 20
0.0
 11
1.0
 21
1.0
 12
-0.0377713848720909
 22
-0.2807218572030106
 13
0.0
 23
0.0
 14
0.5
 24
0.5
 15
0.5
 25
0.5
 16
0.0
 26
0.0
 36
1.0
 17
0.0
 27
0.0
 37
0.0
 40
5.971363696957491
 41
2.260920897284533
 42
50.0
 43
0.0
 44
0.0
 50
0.0
 51
0.0
 71
     0
 72
   100
 73
     1
 74
     3
 75
     0
 76
     0
 77
     0
 78
     0
281
     0
 65
     1
110
0.0
120
0.0
130
0.0
111
1.0
121
0.0
131
0.0
112
0.0
122
1.0
132
0.0
 79
     0
146
0.0
  0
ENDTAB
  0
TABLE
  2
LTYPE
  5
5
330
0
100
AcDbSymbolTable
 70
     1
  0
LTYPE
  5
14
330
5
100
AcDbSymbolTableRecord
100
AcDbLinetypeTableRecord
  2
ByBlock
 70
     0
  3

 72
    65
 73
     0
 40
0.0
  0
LTYPE
  5
15
330
5
100
AcDbSymbolTableRecord
100
AcDbLinetypeTableRecord
  2
ByLayer
 70
     0
  3

 72
    65
 73
     0
 40
0.0
  0
LTYPE
  5
16
330
5
100
AcDbSymbolTableRecord
100
AcDbLinetypeTableRecord
  2
Continuous
 70
     0
  3
Solid line
 72
    65
 73
     0
 40
0.0
  0
ENDTAB
  0
TABLE
  2
LAYER
  5
2
330
0
100
AcDbSymbolTable
 70
     2
  0
LAYER
  5
10
330
2
100
AcDbSymbolTableRecord
100
AcDbLayerTableRecord
  2
0
 70
     0
 62
     7
  6
Continuous
370
    -3
390
F
  0
LAYER
  5
40
330
2
100
AcDbSymbolTableRecord
100
AcDbLayerTableRecord
  2
Ebene 1
 70
     0
 62
     7
  6
Continuous
370
    -3
390
F
  0
ENDTAB
  0
TABLE
  2
STYLE
  5
3
330
0
100
AcDbSymbolTable
 70
     1
  0
STYLE
  5
11
330
3
100
AcDbSymbolTableRecord
100
AcDbTextStyleTableRecord
  2
Standard
 70
     0
 40
0.0
 41
1.0
 50
0.0
 71
     0
 42
0.2
  3
txt
  4

  0
ENDTAB
  0
TABLE
  2
VIEW
  5
6
330
0
100
AcDbSymbolTable
 70
     0
  0
ENDTAB
  0
TABLE
  2
UCS
  5
7
330
0
100
AcDbSymbolTable
 70
     0
  0
ENDTAB
  0
TABLE
  2
APPID
  5
9
330
0
100
AcDbSymbolTable
 70
     2
  0
APPID
  5
12
330
9
100
AcDbSymbolTableRecord
100
AcDbRegAppTableRecord
  2
ACAD
 70
     0
  0
APPID
  5
3F
330
9
100
AcDbSymbolTableRecord
100
AcDbRegAppTableRecord
  2
ODA
 70
     0
  0
ENDTAB
  0
TABLE
  2
DIMSTYLE
  5
A
330
0
100
AcDbSymbolTable
 70
     1
100
AcDbDimStyleTable
 71
     0
  0
DIMSTYLE
105
27
330
A
100
AcDbSymbolTableRecord
100
AcDbDimStyleTableRecord
  2
Standard
 70
     0
340
11
  0
ENDTAB
  0
TABLE
  2
BLOCK_RECORD
  5
1
330
0
100
AcDbSymbolTable
 70
     1
  0
BLOCK_RECORD
  5
1F
330
1
100
AcDbSymbolTableRecord
100
AcDbBlockTableRecord
  2
*Model_Space
340
22
  0
BLOCK_RECORD
  5
1B
330
1
100
AcDbSymbolTableRecord
100
AcDbBlockTableRecord
  2
*Paper_Space
340
1E
  0
BLOCK_RECORD
  5
23
330
1
100
AcDbSymbolTableRecord
100
AcDbBlockTableRecord
  2
*Paper_Space0
340
26
  0
ENDTAB
  0
ENDSEC
  0
SECTION
  2
BLOCKS
  0
BLOCK
  5
20
330
1F
100
AcDbEntity
  8
0
100
AcDbBlockBegin
  2
*Model_Space
 70
     0
 10
0.0
 20
0.0
 30
0.0
  3
*Model_Space
  1

  0
ENDBLK
  5
21
330
1F
100
AcDbEntity
  8
0
100
AcDbBlockEnd
  0
BLOCK
  5
1C
330
1B
100
AcDbEntity
 67
     1
  8
0
100
AcDbBlockBegin
  2
*Paper_Space
 70
     0
 10
0.0
 20
0.0
 30
0.0
  3
*Paper_Space
  1

  0
ENDBLK
  5
1D
330
1B
100
AcDbEntity
 67
     1
  8
0
100
AcDbBlockEnd
  0
BLOCK
  5
24
330
23
100
AcDbEntity
 67
     1
  8
0
100
AcDbBlockBegin
  2
*Paper_Space0
 70
     0
 10
0.0
 20
0.0
 30
0.0
  3
*Paper_Space0
  1

  0
ENDBLK
  5
25
330
23
100
AcDbEntity
 67
     1
  8
0
100
AcDbBlockEnd
  0
ENDSEC
  0
SECTION
  2
ENTITIES
  0
SPLINE
  5
41
330
1F
100
AcDbEntity
  8
Ebene 1
 62
   250
100
AcDbSpline
210
0.0
220
0.0
230
1.0
 70
    11
 71
     3
 72
   124
 73
   120
 74
     0
 42
0.0000000001
 43
0.0000000001
 40
0.0
 40
0.0
 40
0.0
 40
0.0
 40
0.032258064516129
 40
0.032258064516129
 40
0.032258064516129
 40
0.032258064516129
 40
0.0645161290322581
 40
0.0645161290322581
 40
0.0645161290322581
 40
0.0645161290322581
 40
0.0967741935483871
 40
0.0967741935483871
 40
0.0967741935483871
 40
0.0967741935483871
 40
0.1290322580645161
 40
0.1290322580645161
 40
0.1290322580645161
 40
0.1290322580645161
 40
0.1612903225806452
 40
0.1612903225806452
 40
0.1612903225806452
 40
0.1612903225806452
 40
0.1935483870967742
 40
0.1935483870967742
 40
0.1935483870967742
 40
0.1935483870967742
 40
0.2258064516129032
 40
0.2258064516129032
 40
0.2258064516129032
 40
0.2258064516129032
 40
0.2580645161290323
 40
0.2580645161290323
 40
0.2580645161290323
 40
0.2580645161290323
 40
0.2903225806451613
 40
0.2903225806451613
 40
0.2903225806451613
 40
0.2903225806451613
 40
0.3225806451612903
 40
0.3225806451612903
 40
0.3225806451612903
 40
0.3225806451612903
 40
0.3548387096774194
 40
0.3548387096774194
 40
0.3548387096774194
 40
0.3548387096774194
 40
0.3870967741935484
 40
0.3870967741935484
 40
0.3870967741935484
 40
0.3870967741935484
 40
0.4193548387096774
 40
0.4193548387096774
 40
0.4193548387096774
 40
0.4193548387096774
 40
0.4516129032258064
 40
0.4516129032258064
 40
0.4516129032258064
 40
0.4516129032258064
 40
0.4838709677419355
 40
0.4838709677419355
 40
0.4838709677419355
 40
0.4838709677419355
 40
0.5161290322580645
 40
0.5161290322580645
 40
0.5161290322580645
 40
0.5161290322580645
 40
0.5483870967741935
 40
0.5483870967741935
 40
0.5483870967741935
 40
0.5483870967741935
 40
0.5806451612903226
 40
0.5806451612903226
 40
0.5806451612903226
 40
0.5806451612903226
 40
0.6129032258064516
 40
0.6129032258064516
 40
0.6129032258064516
 40
0.6129032258064516
 40
0.6451612903225806
 40
0.6451612903225806
 40
0.6451612903225806
 40
0.6451612903225806
 40
0.6774193548387096
 40
0.6774193548387096
 40
0.6774193548387096
 40
0.6774193548387096
 40
0.7096774193548388
 40
0.7096774193548388
 40
0.7096774193548388
 40
0.7096774193548388
 40
0.7419354838709678
 40
0.7419354838709678
 40
0.7419354838709678
 40
0.7419354838709678
 40
0.7741935483870968
 40
0.7741935483870968
 40
0.7741935483870968
 40
0.7741935483870968
 40
0.8064516129032258
 40
0.8064516129032258
 40
0.8064516129032258
 40
0.8064516129032258
 40
0.8387096774193548
 40
0.8387096774193548
 40
0.8387096774193548
 40
0.8387096774193548
 40
0.8709677419354838
 40
0.8709677419354838
 40
0.8709677419354838
 40
0.8709677419354838
 40
0.9032258064516128
 40
0.9032258064516128
 40
0.9032258064516128
 40
0.9032258064516128
 40
0.9354838709677419
 40
0.9354838709677419
 40
0.9354838709677419
 40
0.9354838709677419
 40
1.0
 40
1.0
 40
1.0
 40
1.0
 10
-3.04386
 20
-1.667869999999999
 30
0.0
 10
-3.04386
 20
-1.667869999999999
 30
0.0
 10
-3.37941
 20
-1.667869999999999
 30
0.0
 10
-3.37941
 20
-1.667869999999999
 30
0.0
 10
-3.37941
 20
-1.667869999999999
 30
0.0
 10
-3.37941
 20
-1.667869999999999
 30
0.0
 10
-3.396769999999999
 20
-1.795159999999999
 30
0.0
 10
-3.396769999999999
 20
-1.795159999999999
 30
0.0
 10
-3.396769999999999
 20
-1.795159999999999
 30
0.0
 10
-3.396769999999999
 20
-1.795159999999999
 30
0.0
 10
-3.30854
 20
-1.795159999999999
 30
0.0
 10
-3.30854
 20
-1.795159999999999
 30
0.0
 10
-3.30854
 20
-1.795159999999999
 30
0.0
 10
-3.30854
 20
-1.795159999999999
 30
0.0
 10
-3.500919999999999
 20
-2.31875
 30
0.0
 10
-3.500919999999999
 20
-2.31875
 30
0.0
 10
-3.500919999999999
 20
-2.31875
 30
0.0
 10
-3.500919999999999
 20
-2.31875
 30
0.0
 10
-3.53418
 20
-2.448909999999999
 30
0.0
 10
-3.53418
 20
-2.448909999999999
 30
0.0
 10
-3.53418
 20
-2.448909999999999
 30
0.0
 10
-3.53418
 20
-2.448909999999999
 30
0.0
 10
-3.541409999999999
 20
-2.448909999999999
 30
0.0
 10
-3.541409999999999
 20
-2.448909999999999
 30
0.0
 10
-3.541409999999999
 20
-2.448909999999999
 30
0.0
 10
-3.541409999999999
 20
-2.448909999999999
 30
0.0
 10
-3.53563
 20
-2.31875
 30
0.0
 10
-3.53563
 20
-2.31875
 30
0.0
 10
-3.53563
 20
-2.31875
 30
0.0
 10
-3.53563
 20
-2.31875
 30
0.0
 10
-3.602169999999999
 20
-1.667869999999999
 30
0.0
 10
-3.602169999999999
 20
-1.667869999999999
 30
0.0
 10
-3.602169999999999
 20
-1.667869999999999
 30
0.0
 10
-3.602169999999999
 20
-1.667869999999999
 30
0.0
 10
-3.858169999999999
 20
-1.667869999999999
 30
0.0
 10
-3.858169999999999
 20
-1.667869999999999
 30
0.0
 10
-3.858169999999999
 20
-1.667869999999999
 30
0.0
 10
-3.858169999999999
 20
-1.667869999999999
 30
0.0
 10
-4.10984
 20
-2.30139
 30
0.0
 10
-4.10984
 20
-2.30139
 30
0.0
 10
-4.10984
 20
-2.30139
 30
0.0
 10
-4.10984
 20
-2.30139
 30
0.0
 10
-4.150339999999999
 20
-2.448909999999999
 30
0.0
 10
-4.150339999999999
 20
-2.448909999999999
 30
0.0
 10
-4.150339999999999
 20
-2.448909999999999
 30
0.0
 10
-4.150339999999999
 20
-2.448909999999999
 30
0.0
 10
-4.15323
 20
-2.448909999999999
 30
0.0
 10
-4.15323
 20
-2.448909999999999
 30
0.0
 10
-4.15323
 20
-2.448909999999999
 30
0.0
 10
-4.15323
 20
-2.448909999999999
 30
0.0
 10
-4.148889999999999
 20
-2.30284
 30
0.0
 10
-4.148889999999999
 20
-2.30284
 30
0.0
 10
-4.148889999999999
 20
-2.30284
 30
0.0
 10
-4.148889999999999
 20
-2.30284
 30
0.0
 10
-4.170589999999999
 20
-1.795159999999999
 30
0.0
 10
-4.170589999999999
 20
-1.795159999999999
 30
0.0
 10
-4.170589999999999
 20
-1.795159999999999
 30
0.0
 10
-4.170589999999999
 20
-1.795159999999999
 30
0.0
 10
-4.082359999999999
 20
-1.795159999999999
 30
0.0
 10
-4.082359999999999
 20
-1.795159999999999
 30
0.0
 10
-4.082359999999999
 20
-1.795159999999999
 30
0.0
 10
-4.082359999999999
 20
-1.795159999999999
 30
0.0
 10
-4.065
 20
-1.667869999999999
 30
0.0
 10
-4.065
 20
-1.667869999999999
 30
0.0
 10
-4.065
 20
-1.667869999999999
 30
0.0
 10
-4.065
 20
-1.667869999999999
 30
0.0
 10
-4.42515
 20
-1.667869999999999
 30
0.0
 10
-4.42515
 20
-1.667869999999999
 30
0.0
 10
-4.42515
 20
-1.667869999999999
 30
0.0
 10
-4.42515
 20
-1.667869999999999
 30
0.0
 10
-4.442509999999999
 20
-1.795159999999999
 30
0.0
 10
-4.442509999999999
 20
-1.795159999999999
 30
0.0
 10
-4.442509999999999
 20
-1.795159999999999
 30
0.0
 10
-4.442509999999999
 20
-1.795159999999999
 30
0.0
 10
-4.38466
 20
-1.798059999999999
 30
0.0
 10
-4.38466
 20
-1.798059999999999
 30
0.0
 10
-4.38466
 20
-1.798059999999999
 30
0.0
 10
-4.38466
 20
-1.798059999999999
 30
0.0
 10
-4.30945
 20
-2.677449999999999
 30
0.0
 10
-4.30945
 20
-2.677449999999999
 30
0.0
 10
-4.30945
 20
-2.677449999999999
 30
0.0
 10
-4.30945
 20
-2.677449999999999
 30
0.0
 10
-4.07513
 20
-2.677449999999999
 30
0.0
 10
-4.07513
 20
-2.677449999999999
 30
0.0
 10
-4.07513
 20
-2.677449999999999
 30
0.0
 10
-4.07513
 20
-2.677449999999999
 30
0.0
 10
-3.79453
 20
-1.94702
 30
0.0
 10
-3.79453
 20
-1.94702
 30
0.0
 10
-3.79453
 20
-1.94702
 30
0.0
 10
-3.79453
 20
-1.94702
 30
0.0
 10
-3.767049999999999
 20
-1.84577
 30
0.0
 10
-3.767049999999999
 20
-1.84577
 30
0.0
 10
-3.767049999999999
 20
-1.84577
 30
0.0
 10
-3.767049999999999
 20
-1.84577
 30
0.0
 10
-3.761269999999999
 20
-1.84577
 30
0.0
 10
-3.761269999999999
 20
-1.84577
 30
0.0
 10
-3.761269999999999
 20
-1.84577
 30
0.0
 10
-3.761269999999999
 20
-1.84577
 30
0.0
 10
-3.764159999999999
 20
-1.94847
 30
0.0
 10
-3.764159999999999
 20
-1.94847
 30
0.0
 10
-3.764159999999999
 20
-1.94847
 30
0.0
 10
-3.764159999999999
 20
-1.94847
 30
0.0
 10
-3.683159999999999
 20
-2.677449999999999
 30
0.0
 10
-3.683159999999999
 20
-2.677449999999999
 30
0.0
 10
-3.683159999999999
 20
-2.677449999999999
 30
0.0
 10
-3.683159999999999
 20
-2.677449999999999
 30
0.0
 10
-3.45463
 20
-2.677449999999999
 30
0.0
 10
-3.45463
 20
-2.677449999999999
 30
0.0
 10
-3.45463
 20
-2.677449999999999
 30
0.0
 10
-3.45463
 20
-2.677449999999999
 30
0.0
 10
-3.120509999999999
 20
-1.798059999999999
 30
0.0
 10
-3.120509999999999
 20
-1.798059999999999
 30
0.0
 10
-3.120509999999999
 20
-1.798059999999999
 30
0.0
 10
-3.120509999999999
 20
-1.798059999999999
 30
0.0
 10
-3.061199999999999
 20
-1.795159999999999
 30
0.0
 10
-3.061199999999999
 20
-1.795159999999999
 30
0.0
 10
-3.061199999999999
 20
-1.795159999999999
 30
0.0
 10
-3.061199999999999
 20
-1.795159999999999
 30
0.0
 10
-3.04386
 20
-1.667869999999999
 30
0.0
 10
-3.04386
 20
-1.667869999999999
 30
0.0
  0
SPLINE
  5
42
330
1F
100
AcDbEntity
  8
Ebene 1
 62
   250
100
AcDbSpline
210
0.0
220
0.0
230
1.0
 70
    11
 71
     3
 72
    48
 73
    44
 74
     0
 42
0.0000000001
 43
0.0000000001
 40
0.0
 40
0.0
 40
0.0
 40
0.0
 40
0.0833333333333333
 40
0.0833333333333333
 40
0.0833333333333333
 40
0.0833333333333333
 40
0.1666666666666667
 40
0.1666666666666667
 40
0.1666666666666667
 40
0.1666666666666667
 40
0.25
 40
0.25
 40
0.25
 40
0.25
 40
0.3333333333333333
 40
0.3333333333333333
 40
0.3333333333333333
 40
0.3333333333333333
 40
0.4166666666666667
 40
0.4166666666666667
 40
0.4166666666666667
 40
0.4166666666666667
 40
0.5
 40
0.5
 40
0.5
 40
0.5
 40
0.5833333333333334
 40
0.5833333333333334
 40
0.5833333333333334
 40
0.5833333333333334
 40
0.6666666666666666
 40
0.6666666666666666
 40
0.6666666666666666
 40
0.6666666666666666
 40
0.75
 40
0.75
 40
0.75
 40
0.75
 40
0.8333333333333333
 40
0.8333333333333333
 40
0.8333333333333333
 40
0.8333333333333333
 40
1.0
 40
1.0
 40
1.0
 40
1.0
 10
-2.374249999999999
 20
-2.07722
 30
0.0
 10
-2.374249999999999
 20
-2.07722
 30
0.0
 10
-2.374249999999999
 20
-2.07722
 30
0.0
 10
-2.374249999999999
 20
-2.07722
 30
0.0
 10
-2.374249999999999
 20
-2.07722
 30
0.0
 10
-2.374249999999999
 20
-1.931109999999999
 30
0.0
 10
-2.49574
 20
-1.88774
 30
0.0
 10
-2.62157
 20
-1.88774
 30
0.0
 10
-2.62157
 20
-1.88774
 30
0.0
 10
-2.62157
 20
-1.88774
 30
0.0
 10
-2.74164
 20
-1.88774
 30
0.0
 10
-2.74164
 20
-1.88774
 30
0.0
 10
-2.74164
 20
-1.88774
 30
0.0
 10
-2.89784
 20
-1.88774
 30
0.0
 10
-3.04103
 20
-1.96584
 30
0.0
 10
-3.064179999999999
 20
-2.132169999999999
 30
0.0
 10
-3.064179999999999
 20
-2.132169999999999
 30
0.0
 10
-3.07864
 20
-2.23342
 30
0.0
 10
-3.09166
 20
-2.336109999999999
 30
0.0
 10
-3.106129999999999
 20
-2.437359999999999
 30
0.0
 10
-3.106129999999999
 20
-2.437359999999999
 30
0.0
 10
-3.10902
 20
-2.454699999999999
 30
0.0
 10
-3.11047
 20
-2.473509999999999
 30
0.0
 10
-3.11047
 20
-2.49087
 30
0.0
 10
-3.11047
 20
-2.49087
 30
0.0
 10
-3.11047
 20
-2.654309999999999
 30
0.0
 10
-2.981729999999999
 20
-2.686139999999999
 30
0.0
 10
-2.84432
 20
-2.686139999999999
 30
0.0
 10
-2.84432
 20
-2.686139999999999
 30
0.0
 10
-2.84432
 20
-2.686139999999999
 30
0.0
 10
-2.751759999999999
 20
-2.686139999999999
 30
0.0
 10
-2.751759999999999
 20
-2.686139999999999
 30
0.0
 10
-2.751759999999999
 20
-2.686139999999999
 30
0.0
 10
-2.5724
 20
-2.686139999999999
 30
0.0
 10
-2.449459999999999
 20
-2.62826
 30
0.0
 10
-2.42198
 20
-2.437359999999999
 30
0.0
 10
-2.42198
 20
-2.437359999999999
 30
0.0
 10
-2.407509999999999
 20
-2.33177
 30
0.0
 10
-2.391599999999999
 20
-2.22474
 30
0.0
 10
-2.377149999999999
 20
-2.11914
 30
0.0
 10
-2.377149999999999
 20
-2.11914
 30
0.0
 10
-2.3757
 20
-2.10467
 30
0.0
 10
-2.374249999999999
 20
-2.09165
 30
0.0
 10
-2.374249999999999
 20
-2.07722
 30
0.0
  0
SPLINE
  5
43
330
1F
100
AcDbEntity
  8
Ebene 1
 62
   250
100
AcDbSpline
210
0.0
220
0.0
230
1.0
 70
    11
 71
     3
 72
    48
 73
    44
 74
     0
 42
0.0000000001
 43
0.0000000001
 40
0.0
 40
0.0
 40
0.0
 40
0.0
 40
0.0833333333333333
 40
0.0833333333333333
 40
0.0833333333333333
 40
0.0833333333333333
 40
0.1666666666666667
 40
0.1666666666666667
 40
0.1666666666666667
 40
0.1666666666666667
 40
0.25
 40
0.25
 40
0.25
 40
0.25
 40
0.3333333333333333
 40
0.3333333333333333
 40
0.3333333333333333
 40
0.3333333333333333
 40
0.4166666666666667
 40
0.4166666666666667
 40
0.4166666666666667
 40
0.4166666666666667
 40
0.5
 40
0.5
 40
0.5
 40
0.5
 40
0.5833333333333334
 40
0.5833333333333334
 40
0.5833333333333334
 40
0.5833333333333334
 40
0.6666666666666666
 40
0.6666666666666666
 40
0.6666666666666666
 40
0.6666666666666666
 40
0.75
 40
0.75
 40
0.75
 40
0.75
 40
0.8333333333333333
 40
0.8333333333333333
 40
0.8333333333333333
 40
0.8333333333333333
 40
1.0
 40
1.0
 40
1.0
 40
1.0
 10
-2.58687
 20
-2.110459999999999
 30
0.0
 10
-2.58687
 20
-2.110459999999999
 30
0.0
 10
-2.58687
 20
-2.110459999999999
 30
0.0
 10
-2.58687
 20
-2.110459999999999
 30
0.0
 10
-2.58687
 20
-2.110459999999999
 30
0.0
 10
-2.58687
 20
-2.110459999999999
 30
0.0
 10
-2.63749
 20
-2.463379999999999
 30
0.0
 10
-2.63749
 20
-2.463379999999999
 30
0.0
 10
-2.63749
 20
-2.463379999999999
 30
0.0
 10
-2.644719999999999
 20
-2.51547
 30
0.0
 10
-2.682329999999999
 20
-2.53569
 30
0.0
 10
-2.731509999999999
 20
-2.53569
 30
0.0
 10
-2.731509999999999
 20
-2.53569
 30
0.0
 10
-2.731509999999999
 20
-2.53569
 30
0.0
 10
-2.82408
 20
-2.53569
 30
0.0
 10
-2.82408
 20
-2.53569
 30
0.0
 10
-2.82408
 20
-2.53569
 30
0.0
 10
-2.863129999999999
 20
-2.53569
 30
0.0
 10
-2.89929
 20
-2.52415
 30
0.0
 10
-2.89929
 20
-2.47785
 30
0.0
 10
-2.89929
 20
-2.47785
 30
0.0
 10
-2.89929
 20
-2.473509999999999
 30
0.0
 10
-2.89929
 20
-2.467719999999999
 30
0.0
 10
-2.89929
 20
-2.463379999999999
 30
0.0
 10
-2.89929
 20
-2.463379999999999
 30
0.0
 10
-2.89929
 20
-2.463379999999999
 30
0.0
 10
-2.848659999999999
 20
-2.110459999999999
 30
0.0
 10
-2.848659999999999
 20
-2.110459999999999
 30
0.0
 10
-2.848659999999999
 20
-2.110459999999999
 30
0.0
 10
-2.84144
 20
-2.056959999999999
 30
0.0
 10
-2.80527
 20
-2.038149999999999
 30
0.0
 10
-2.75464
 20
-2.038149999999999
 30
0.0
 10
-2.75464
 20
-2.038149999999999
 30
0.0
 10
-2.75464
 20
-2.038149999999999
 30
0.0
 10
-2.66064
 20
-2.038149999999999
 30
0.0
 10
-2.66064
 20
-2.038149999999999
 30
0.0
 10
-2.66064
 20
-2.038149999999999
 30
0.0
 10
-2.62157
 20
-2.038149999999999
 30
0.0
 10
-2.58687
 20
-2.04828
 30
0.0
 10
-2.58687
 20
-2.094549999999999
 30
0.0
 10
-2.58687
 20
-2.094549999999999
 30
0.0
 10
-2.58687
 20
-2.10033
 30
0.0
 10
-2.58542
 20
-2.10467
 30
0.0
 10
-2.58687
 20
-2.110459999999999
 30
0.0
  0
SPLINE
  5
44
330
1F
100
AcDbEntity
  8
Ebene 1
 62
   250
100
AcDbSpline
210
0.0
220
0.0
230
1.0
 70
    11
 71
     3
 72
    48
 73
    44
 74
     0
 42
0.0000000001
 43
0.0000000001
 40
0.0
 40
0.0
 40
0.0
 40
0.0
 40
0.0833333333333333
 40
0.0833333333333333
 40
0.0833333333333333
 40
0.0833333333333333
 40
0.1666666666666667
 40
0.1666666666666667
 40
0.1666666666666667
 40
0.1666666666666667
 40
0.25
 40
0.25
 40
0.25
 40
0.25
 40
0.3333333333333333
 40
0.3333333333333333
 40
0.3333333333333333
 40
0.3333333333333333
 40
0.4166666666666667
 40
0.4166666666666667
 40
0.4166666666666667
 40
0.4166666666666667
 40
0.5
 40
0.5
 40
0.5
 40
0.5
 40
0.5833333333333334
 40
0.5833333333333334
 40
0.5833333333333334
 40
0.5833333333333334
 40
0.6666666666666666
 40
0.6666666666666666
 40
0.6666666666666666
 40
0.6666666666666666
 40
0.75
 40
0.75
 40
0.75
 40
0.75
 40
0.8333333333333333
 40
0.8333333333333333
 40
0.8333333333333333
 40
0.8333333333333333
 40
1.0
 40
1.0
 40
1.0
 40
1.0
 10
-1.513649999999999
 20
-2.07722
 30
0.0
 10
-1.513649999999999
 20
-2.07722
 30
0.0
 10
-1.513649999999999
 20
-2.07722
 30
0.0
 10
-1.513649999999999
 20
-2.07722
 30
0.0
 10
-1.513649999999999
 20
-2.07722
 30
0.0
 10
-1.513649999999999
 20
-1.931109999999999
 30
0.0
 10
-1.635159999999999
 20
-1.88774
 30
0.0
 10
-1.76099
 20
-1.88774
 30
0.0
 10
-1.76099
 20
-1.88774
 30
0.0
 10
-1.76099
 20
-1.88774
 30
0.0
 10
-1.881029999999999
 20
-1.88774
 30
0.0
 10
-1.881029999999999
 20
-1.88774
 30
0.0
 10
-1.881029999999999
 20
-1.88774
 30
0.0
 10
-2.037249999999999
 20
-1.88774
 30
0.0
 10
-2.180449999999999
 20
-1.96584
 30
0.0
 10
-2.20358
 20
-2.132169999999999
 30
0.0
 10
-2.20358
 20
-2.132169999999999
 30
0.0
 10
-2.218049999999999
 20
-2.23342
 30
0.0
 10
-2.231059999999999
 20
-2.336109999999999
 30
0.0
 10
-2.245519999999999
 20
-2.437359999999999
 30
0.0
 10
-2.245519999999999
 20
-2.437359999999999
 30
0.0
 10
-2.248419999999999
 20
-2.454699999999999
 30
0.0
 10
-2.24987
 20
-2.473509999999999
 30
0.0
 10
-2.24987
 20
-2.49087
 30
0.0
 10
-2.24987
 20
-2.49087
 30
0.0
 10
-2.24987
 20
-2.654309999999999
 30
0.0
 10
-2.12114
 20
-2.686139999999999
 30
0.0
 10
-1.983729999999999
 20
-2.686139999999999
 30
0.0
 10
-1.983729999999999
 20
-2.686139999999999
 30
0.0
 10
-1.983729999999999
 20
-2.686139999999999
 30
0.0
 10
-1.891159999999999
 20
-2.686139999999999
 30
0.0
 10
-1.891159999999999
 20
-2.686139999999999
 30
0.0
 10
-1.891159999999999
 20
-2.686139999999999
 30
0.0
 10
-1.711809999999999
 20
-2.686139999999999
 30
0.0
 10
-1.58887
 20
-2.62826
 30
0.0
 10
-1.561379999999999
 20
-2.437359999999999
 30
0.0
 10
-1.561379999999999
 20
-2.437359999999999
 30
0.0
 10
-1.546929999999999
 20
-2.33177
 30
0.0
 10
-1.53101
 20
-2.22474
 30
0.0
 10
-1.516539999999999
 20
-2.11914
 30
0.0
 10
-1.516539999999999
 20
-2.11914
 30
0.0
 10
-1.515099999999999
 20
-2.10467
 30
0.0
 10
-1.513649999999999
 20
-2.09165
 30
0.0
 10
-1.513649999999999
 20
-2.07722
 30
0.0
  0
SPLINE
  5
45
330
1F
100
AcDbEntity
  8
Ebene 1
 62
   250
100
AcDbSpline
210
0.0
220
0.0
230
1.0
 70
    11
 71
     3
 72
    48
 73
    44
 74
     0
 42
0.0000000001
 43
0.0000000001
 40
0.0
 40
0.0
 40
0.0
 40
0.0
 40
0.0833333333333333
 40
0.0833333333333333
 40
0.0833333333333333
 40
0.0833333333333333
 40
0.1666666666666667
 40
0.1666666666666667
 40
0.1666666666666667
 40
0.1666666666666667
 40
0.25
 40
0.25
 40
0.25
 40
0.25
 40
0.3333333333333333
 40
0.3333333333333333
 40
0.3333333333333333
 40
0.3333333333333333
 40
0.4166666666666667
 40
0.4166666666666667
 40
0.4166666666666667
 40
0.4166666666666667
 40
0.5
 40
0.5
 40
0.5
 40
0.5
 40
0.5833333333333334
 40
0.5833333333333334
 40
0.5833333333333334
 40
0.5833333333333334
 40
0.6666666666666666
 40
0.6666666666666666
 40
0.6666666666666666
 40
0.6666666666666666
 40
0.75
 40
0.75
 40
0.75
 40
0.75
 40
0.8333333333333333
 40
0.8333333333333333
 40
0.8333333333333333
 40
0.8333333333333333
 40
1.0
 40
1.0
 40
1.0
 40
1.0
 10
-1.72628
 20
-2.110459999999999
 30
0.0
 10
-1.72628
 20
-2.110459999999999
 30
0.0
 10
-1.72628
 20
-2.110459999999999
 30
0.0
 10
-1.72628
 20
-2.110459999999999
 30
0.0
 10
-1.72628
 20
-2.110459999999999
 30
0.0
 10
-1.72628
 20
-2.110459999999999
 30
0.0
 10
-1.77689
 20
-2.463379999999999
 30
0.0
 10
-1.77689
 20
-2.463379999999999
 30
0.0
 10
-1.77689
 20
-2.463379999999999
 30
0.0
 10
-1.78412
 20
-2.51547
 30
0.0
 10
-1.821729999999999
 20
-2.53569
 30
0.0
 10
-1.870909999999999
 20
-2.53569
 30
0.0
 10
-1.870909999999999
 20
-2.53569
 30
0.0
 10
-1.870909999999999
 20
-2.53569
 30
0.0
 10
-1.96347
 20
-2.53569
 30
0.0
 10
-1.96347
 20
-2.53569
 30
0.0
 10
-1.96347
 20
-2.53569
 30
0.0
 10
-2.00252
 20
-2.53569
 30
0.0
 10
-2.038699999999999
 20
-2.52415
 30
0.0
 10
-2.038699999999999
 20
-2.47785
 30
0.0
 10
-2.038699999999999
 20
-2.47785
 30
0.0
 10
-2.038699999999999
 20
-2.473509999999999
 30
0.0
 10
-2.038699999999999
 20
-2.467719999999999
 30
0.0
 10
-2.038699999999999
 20
-2.463379999999999
 30
0.0
 10
-2.038699999999999
 20
-2.463379999999999
 30
0.0
 10
-2.038699999999999
 20
-2.463379999999999
 30
0.0
 10
-1.98807
 20
-2.110459999999999
 30
0.0
 10
-1.98807
 20
-2.110459999999999
 30
0.0
 10
-1.98807
 20
-2.110459999999999
 30
0.0
 10
-1.98084
 20
-2.056959999999999
 30
0.0
 10
-1.944679999999999
 20
-2.038149999999999
 30
0.0
 10
-1.894059999999999
 20
-2.038149999999999
 30
0.0
 10
-1.894059999999999
 20
-2.038149999999999
 30
0.0
 10
-1.894059999999999
 20
-2.038149999999999
 30
0.0
 10
-1.80004
 20
-2.038149999999999
 30
0.0
 10
-1.80004
 20
-2.038149999999999
 30
0.0
 10
-1.80004
 20
-2.038149999999999
 30
0.0
 10
-1.76099
 20
-2.038149999999999
 30
0.0
 10
-1.72628
 20
-2.04828
 30
0.0
 10
-1.72628
 20
-2.094549999999999
 30
0.0
 10
-1.72628
 20
-2.094549999999999
 30
0.0
 10
-1.72628
 20
-2.10033
 30
0.0
 10
-1.724829999999999
 20
-2.10467
 30
0.0
 10
-1.72628
 20
-2.110459999999999
 30
0.0
  0
SPLINE
  5
46
330
1F
100
AcDbEntity
  8
Ebene 1
 62
   250
100
AcDbSpline
210
0.0
220
0.0
230
1.0
 70
    11
 71
     3
 72
    76
 73
    72
 74
     0
 42
0.0000000001
 43
0.0000000001
 40
0.0
 40
0.0
 40
0.0
 40
0.0
 40
0.0526315789473684
 40
0.0526315789473684
 40
0.0526315789473684
 40
0.0526315789473684
 40
0.1052631578947368
 40
0.1052631578947368
 40
0.1052631578947368
 40
0.1052631578947368
 40
0.1578947368421053
 40
0.1578947368421053
 40
0.1578947368421053
 40
0.1578947368421053
 40
0.2105263157894737
 40
0.2105263157894737
 40
0.2105263157894737
 40
0.2105263157894737
 40
0.2631578947368421
 40
0.2631578947368421
 40
0.2631578947368421
 40
0.2631578947368421
 40
0.3157894736842105
 40
0.3157894736842105
 40
0.3157894736842105
 40
0.3157894736842105
 40
0.3684210526315789
 40
0.3684210526315789
 40
0.3684210526315789
 40
0.3684210526315789
 40
0.4210526315789473
 40
0.4210526315789473
 40
0.4210526315789473
 40
0.4210526315789473
 40
0.4736842105263159
 40
0.4736842105263159
 40
0.4736842105263159
 40
0.4736842105263159
 40
0.5263157894736842
 40
0.5263157894736842
 40
0.5263157894736842
 40
0.5263157894736842
 40
0.5789473684210527
 40
0.5789473684210527
 40
0.5789473684210527
 40
0.5789473684210527
 40
0.6315789473684211
 40
0.6315789473684211
 40
0.6315789473684211
 40
0.6315789473684211
 40
0.6842105263157895
 40
0.6842105263157895
 40
0.6842105263157895
 40
0.6842105263157895
 40
0.7368421052631579
 40
0.7368421052631579
 40
0.7368421052631579
 40
0.7368421052631579
 40
0.7894736842105264
 40
0.7894736842105264
 40
0.7894736842105264
 40
0.7894736842105264
 40
0.8421052631578946
 40
0.8421052631578946
 40
0.8421052631578946
 40
0.8421052631578946
 40
0.8947368421052631
 40
0.8947368421052631
 40
0.8947368421052631
 40
0.8947368421052631
 40
1.0
 40
1.0
 40
1.0
 40
1.0
 10
-0.59231
 20
-1.607129999999999
 30
0.0
 10
-0.59231
 20
-1.607129999999999
 30
0.0
 10
-0.59231
 20
-1.607129999999999
 30
0.0
 10
-0.59231
 20
-1.607129999999999
 30
0.0
 10
-0.59231
 20
-1.607129999999999
 30
0.0
 10
-0.59231
 20
-1.607129999999999
 30
0.0
 10
-0.8960499999999999
 20
-1.610029999999999
 30
0.0
 10
-0.8960499999999999
 20
-1.610029999999999
 30
0.0
 10
-0.8960499999999999
 20
-1.610029999999999
 30
0.0
 10
-0.8960499999999999
 20
-1.610029999999999
 30
0.0
 10
-0.91341
 20
-1.73729
 30
0.0
 10
-0.91341
 20
-1.73729
 30
0.0
 10
-0.91341
 20
-1.73729
 30
0.0
 10
-0.91341
 20
-1.73729
 30
0.0
 10
-0.8208400000000001
 20
-1.73729
 30
0.0
 10
-0.8208400000000001
 20
-1.73729
 30
0.0
 10
-0.8208400000000001
 20
-1.73729
 30
0.0
 10
-0.8208400000000001
 20
-1.73729
 30
0.0
 10
-0.84832
 20
-1.91519
 30
0.0
 10
-0.84832
 20
-1.91519
 30
0.0
 10
-0.84832
 20
-1.91519
 30
0.0
 10
-0.90907
 20
-1.900719999999999
 30
0.0
 10
-0.9972999999999998
 20
-1.88774
 30
0.0
 10
-1.04937
 20
-1.88774
 30
0.0
 10
-1.04937
 20
-1.88774
 30
0.0
 10
-1.04937
 20
-1.88774
 30
0.0
 10
-1.082629999999999
 20
-1.88774
 30
0.0
 10
-1.082629999999999
 20
-1.88774
 30
0.0
 10
-1.082629999999999
 20
-1.88774
 30
0.0
 10
-1.212809999999999
 20
-1.88774
 30
0.0
 10
-1.31406
 20
-1.9615
 30
0.0
 10
-1.33285
 20
-2.0931
 30
0.0
 10
-1.33285
 20
-2.0931
 30
0.0
 10
-1.33285
 20
-2.0931
 30
0.0
 10
-1.383479999999999
 20
-2.46048
 30
0.0
 10
-1.383479999999999
 20
-2.46048
 30
0.0
 10
-1.383479999999999
 20
-2.46048
 30
0.0
 10
-1.38492
 20
-2.47495
 30
0.0
 10
-1.389269999999999
 20
-2.51113
 30
0.0
 10
-1.389269999999999
 20
-2.52559
 30
0.0
 10
-1.389269999999999
 20
-2.52559
 30
0.0
 10
-1.389269999999999
 20
-2.6326
 30
0.0
 10
-1.32274
 20
-2.686139999999999
 30
0.0
 10
-1.19257
 20
-2.686139999999999
 30
0.0
 10
-1.19257
 20
-2.686139999999999
 30
0.0
 10
-1.19257
 20
-2.686139999999999
 30
0.0
 10
-1.136149999999999
 20
-2.686139999999999
 30
0.0
 10
-1.136149999999999
 20
-2.686139999999999
 30
0.0
 10
-1.136149999999999
 20
-2.686139999999999
 30
0.0
 10
-1.046479999999999
 20
-2.686139999999999
 30
0.0
 10
-1.001639999999999
 20
-2.667329999999999
 30
0.0
 10
-0.9351
 20
-2.60949
 30
0.0
 10
-0.9351
 20
-2.60949
 30
0.0
 10
-0.9351
 20
-2.60949
 30
0.0
 10
-0.93655
 20
-2.668769999999999
 30
0.0
 10
-0.93655
 20
-2.668769999999999
 30
0.0
 10
-0.93655
 20
-2.668769999999999
 30
0.0
 10
-0.93655
 20
-2.668769999999999
 30
0.0
 10
-0.6501700000000001
 20
-2.668769999999999
 30
0.0
 10
-0.6501700000000001
 20
-2.668769999999999
 30
0.0
 10
-0.6501700000000001
 20
-2.668769999999999
 30
0.0
 10
-0.6501700000000001
 20
-2.668769999999999
 30
0.0
 10
-0.63136
 20
-2.541479999999999
 30
0.0
 10
-0.63136
 20
-2.541479999999999
 30
0.0
 10
-0.63136
 20
-2.541479999999999
 30
0.0
 10
-0.63136
 20
-2.541479999999999
 30
0.0
 10
-0.72248
 20
-2.540029999999999
 30
0.0
 10
-0.72248
 20
-2.540029999999999
 30
0.0
 10
-0.72248
 20
-2.540029999999999
 30
0.0
 10
-0.72248
 20
-2.540029999999999
 30
0.0
 10
-0.59231
 20
-1.607129999999999
 30
0.0
 10
-0.59231
 20
-1.607129999999999
 30
0.0
  0
SPLINE
  5
47
330
1F
100
AcDbEntity
  8
Ebene 1
 62
   250
100
AcDbSpline
210
0.0
220
0.0
230
1.0
 70
    11
 71
     3
 72
    44
 73
    40
 74
     0
 42
0.0000000001
 43
0.0000000001
 40
0.0
 40
0.0
 40
0.0
 40
0.0
 40
0.0909090909090909
 40
0.0909090909090909
 40
0.0909090909090909
 40
0.0909090909090909
 40
0.1818181818181818
 40
0.1818181818181818
 40
0.1818181818181818
 40
0.1818181818181818
 40
0.2727272727272727
 40
0.2727272727272727
 40
0.2727272727272727
 40
0.2727272727272727
 40
0.3636363636363636
 40
0.3636363636363636
 40
0.3636363636363636
 40
0.3636363636363636
 40
0.4545454545454545
 40
0.4545454545454545
 40
0.4545454545454545
 40
0.4545454545454545
 40
0.5454545454545455
 40
0.5454545454545455
 40
0.5454545454545455
 40
0.5454545454545455
 40
0.6363636363636364
 40
0.6363636363636364
 40
0.6363636363636364
 40
0.6363636363636364
 40
0.7272727272727274
 40
0.7272727272727274
 40
0.7272727272727274
 40
0.7272727272727274
 40
0.8181818181818181
 40
0.8181818181818181
 40
0.8181818181818181
 40
0.8181818181818181
 40
1.0
 40
1.0
 40
1.0
 40
1.0
 10
-0.8642299999999998
 20
-2.04828
 30
0.0
 10
-0.8642299999999998
 20
-2.04828
 30
0.0
 10
-0.8642299999999998
 20
-2.04828
 30
0.0
 10
-0.8642299999999998
 20
-2.04828
 30
0.0
 10
-0.8642299999999998
 20
-2.04828
 30
0.0
 10
-0.8642299999999998
 20
-2.04828
 30
0.0
 10
-0.92643
 20
-2.49087
 30
0.0
 10
-0.92643
 20
-2.49087
 30
0.0
 10
-0.92643
 20
-2.49087
 30
0.0
 10
-0.9611399999999999
 20
-2.51547
 30
0.0
 10
-1.001639999999999
 20
-2.52994
 30
0.0
 10
-1.043579999999999
 20
-2.52994
 30
0.0
 10
-1.043579999999999
 20
-2.52994
 30
0.0
 10
-1.043579999999999
 20
-2.52994
 30
0.0
 10
-1.11156
 20
-2.52994
 30
0.0
 10
-1.11156
 20
-2.52994
 30
0.0
 10
-1.11156
 20
-2.52994
 30
0.0
 10
-1.149179999999999
 20
-2.52994
 30
0.0
 10
-1.1752
 20
-2.522699999999999
 30
0.0
 10
-1.1752
 20
-2.480739999999999
 30
0.0
 10
-1.1752
 20
-2.480739999999999
 30
0.0
 10
-1.1752
 20
-2.473509999999999
 30
0.0
 10
-1.17376
 20
-2.46627
 30
0.0
 10
-1.172309999999999
 20
-2.45904
 30
0.0
 10
-1.172309999999999
 20
-2.45904
 30
0.0
 10
-1.172309999999999
 20
-2.45904
 30
0.0
 10
-1.12602
 20
-2.123479999999999
 30
0.0
 10
-1.12602
 20
-2.123479999999999
 30
0.0
 10
-1.12602
 20
-2.123479999999999
 30
0.0
 10
-1.117339999999999
 20
-2.064189999999999
 30
0.0
 10
-1.09566
 20
-2.038149999999999
 30
0.0
 10
-1.033449999999999
 20
-2.038149999999999
 30
0.0
 10
-1.033449999999999
 20
-2.038149999999999
 30
0.0
 10
-1.033449999999999
 20
-2.038149999999999
 30
0.0
 10
-0.9770399999999998
 20
-2.038149999999999
 30
0.0
 10
-0.9770399999999998
 20
-2.038149999999999
 30
0.0
 10
-0.9770399999999998
 20
-2.038149999999999
 30
0.0
 10
-0.9394399999999999
 20
-2.038149999999999
 30
0.0
 10
-0.8974899999999999
 20
-2.045379999999999
 30
0.0
 10
-0.8642299999999998
 20
-2.04828
 30
0.0
  0
SPLINE
  5
48
330
1F
100
AcDbEntity
  8
Ebene 1
 62
   250
100
AcDbSpline
210
0.0
220
0.0
230
1.0
 70
    11
 71
     3
 72
    84
 73
    80
 74
     0
 42
0.0000000001
 43
0.0000000001
 40
0.0
 40
0.0
 40
0.0
 40
0.0
 40
0.0476190476190476
 40
0.0476190476190476
 40
0.0476190476190476
 40
0.0476190476190476
 40
0.0952380952380952
 40
0.0952380952380952
 40
0.0952380952380952
 40
0.0952380952380952
 40
0.1428571428571428
 40
0.1428571428571428
 40
0.1428571428571428
 40
0.1428571428571428
 40
0.1904761904761905
 40
0.1904761904761905
 40
0.1904761904761905
 40
0.1904761904761905
 40
0.2380952380952381
 40
0.2380952380952381
 40
0.2380952380952381
 40
0.2380952380952381
 40
0.2857142857142857
 40
0.2857142857142857
 40
0.2857142857142857
 40
0.2857142857142857
 40
0.3333333333333333
 40
0.3333333333333333
 40
0.3333333333333333
 40
0.3333333333333333
 40
0.3809523809523809
 40
0.3809523809523809
 40
0.3809523809523809
 40
0.3809523809523809
 40
0.4285714285714285
 40
0.4285714285714285
 40
0.4285714285714285
 40
0.4285714285714285
 40
0.4761904761904762
 40
0.4761904761904762
 40
0.4761904761904762
 40
0.4761904761904762
 40
0.5238095238095239
 40
0.5238095238095239
 40
0.5238095238095239
 40
0.5238095238095239
 40
0.5714285714285714
 40
0.5714285714285714
 40
0.5714285714285714
 40
0.5714285714285714
 40
0.6190476190476191
 40
0.6190476190476191
 40
0.6190476190476191
 40
0.6190476190476191
 40
0.6666666666666666
 40
0.6666666666666666
 40
0.6666666666666666
 40
0.6666666666666666
 40
0.7142857142857144
 40
0.7142857142857144
 40
0.7142857142857144
 40
0.7142857142857144
 40
0.7619047619047619
 40
0.7619047619047619
 40
0.7619047619047619
 40
0.7619047619047619
 40
0.8095238095238094
 40
0.8095238095238094
 40
0.8095238095238094
 40
0.8095238095238094
 40
0.8571428571428571
 40
0.8571428571428571
 40
0.8571428571428571
 40
0.8571428571428571
 40
0.9047619047619047
 40
0.9047619047619047
 40
0.9047619047619047
 40
0.9047619047619047
 40
1.0
 40
1.0
 40
1.0
 40
1.0
 10
0.25962
 20
-2.04249
 30
0.0
 10
0.25962
 20
-2.04249
 30
0.0
 10
0.25962
 20
-2.04249
 30
0.0
 10
0.25962
 20
-2.04249
 30
0.0
 10
0.25962
 20
-2.04249
 30
0.0
 10
0.25962
 20
-2.04249
 30
0.0
 10
0.25962
 20
-1.907959999999999
 30
0.0
 10
0.25962
 20
-1.907959999999999
 30
0.0
 10
0.25962
 20
-1.907959999999999
 30
0.0
 10
0.25962
 20
-1.907959999999999
 30
0.0
 10
-0.02244
 20
-1.91375
 30
0.0
 10
-0.02244
 20
-1.91375
 30
0.0
 10
-0.02244
 20
-1.91375
 30
0.0
 10
-0.02244
 20
-1.91375
 30
0.0
 10
-0.04125
 20
-2.038149999999999
 30
0.0
 10
-0.04125
 20
-2.038149999999999
 30
0.0
 10
-0.04125
 20
-2.038149999999999
 30
0.0
 10
-0.04125
 20
-2.038149999999999
 30
0.0
 10
0.06869
 20
-2.04249
 30
0.0
 10
0.06869
 20
-2.04249
 30
0.0
 10
0.06869
 20
-2.04249
 30
0.0
 10
0.06869
 20
-2.04249
 30
0.0
 10
-0.13092
 20
-2.47929
 30
0.0
 10
-0.13092
 20
-2.47929
 30
0.0
 10
-0.13092
 20
-2.47929
 30
0.0
 10
-0.13092
 20
-2.47929
 30
0.0
 10
-0.13527
 20
-2.47929
 30
0.0
 10
-0.13527
 20
-2.47929
 30
0.0
 10
-0.13527
 20
-2.47929
 30
0.0
 10
-0.13527
 20
-2.47929
 30
0.0
 10
-0.21626
 20
-2.04249
 30
0.0
 10
-0.21626
 20
-2.04249
 30
0.0
 10
-0.21626
 20
-2.04249
 30
0.0
 10
-0.21626
 20
-2.04249
 30
0.0
 10
-0.21626
 20
-1.907959999999999
 30
0.0
 10
-0.21626
 20
-1.907959999999999
 30
0.0
 10
-0.21626
 20
-1.907959999999999
 30
0.0
 10
-0.21626
 20
-1.907959999999999
 30
0.0
 10
-0.4795
 20
-1.91375
 30
0.0
 10
-0.4795
 20
-1.91375
 30
0.0
 10
-0.4795
 20
-1.91375
 30
0.0
 10
-0.4795
 20
-1.91375
 30
0.0
 10
-0.4983100000000001
 20
-2.038149999999999
 30
0.0
 10
-0.4983100000000001
 20
-2.038149999999999
 30
0.0
 10
-0.4983100000000001
 20
-2.038149999999999
 30
0.0
 10
-0.4983100000000001
 20
-2.038149999999999
 30
0.0
 10
-0.41442
 20
-2.04249
 30
0.0
 10
-0.41442
 20
-2.04249
 30
0.0
 10
-0.41442
 20
-2.04249
 30
0.0
 10
-0.41442
 20
-2.04249
 30
0.0
 10
-0.27991
 20
-2.689029999999999
 30
0.0
 10
-0.27991
 20
-2.689029999999999
 30
0.0
 10
-0.27991
 20
-2.689029999999999
 30
0.0
 10
-0.27991
 20
-2.689029999999999
 30
0.0
 10
-0.29148
 20
-2.71794
 30
0.0
 10
-0.29148
 20
-2.71794
 30
0.0
 10
-0.29148
 20
-2.71794
 30
0.0
 10
-0.31172
 20
-2.767129999999999
 30
0.0
 10
-0.34933
 20
-2.809059999999999
 30
0.0
 10
-0.4115300000000001
 20
-2.809059999999999
 30
0.0
 10
-0.4115300000000001
 20
-2.809059999999999
 30
0.0
 10
-0.4115300000000001
 20
-2.809059999999999
 30
0.0
 10
-0.5113300000000001
 20
-2.809059999999999
 30
0.0
 10
-0.5113300000000001
 20
-2.809059999999999
 30
0.0
 10
-0.5113300000000001
 20
-2.809059999999999
 30
0.0
 10
-0.5113300000000001
 20
-2.809059999999999
 30
0.0
 10
-0.53302
 20
-2.96819
 30
0.0
 10
-0.53302
 20
-2.96819
 30
0.0
 10
-0.53302
 20
-2.96819
 30
0.0
 10
-0.53302
 20
-2.96819
 30
0.0
 10
-0.4983100000000001
 20
-2.976869999999999
 30
0.0
 10
-0.46794
 20
-2.976869999999999
 30
0.0
 10
-0.46794
 20
-2.976869999999999
 30
0.0
 10
-0.30449
 20
-2.976869999999999
 30
0.0
 10
-0.20324
 20
-2.9378
 30
0.0
 10
-0.12514
 20
-2.78739
 30
0.0
 10
-0.12514
 20
-2.78739
 30
0.0
 10
-0.12514
 20
-2.78739
 30
0.0
 10
0.25962
 20
-2.04249
 30
0.0
 10
0.25962
 20
-2.04249
 30
0.0
  0
SPLINE
  5
49
330
1F
100
AcDbEntity
  8
Ebene 1
 62
   250
100
AcDbSpline
210
0.0
220
0.0
230
1.0
 70
    11
 71
     3
 72
    80
 73
    76
 74
     0
 42
0.0000000001
 43
0.0000000001
 40
0.0
 40
0.0
 40
0.0
 40
0.0
 40
0.05
 40
0.05
 40
0.05
 40
0.05
 40
0.1
 40
0.1
 40
0.1
 40
0.1
 40
0.15
 40
0.15
 40
0.15
 40
0.15
 40
0.2
 40
0.2
 40
0.2
 40
0.2
 40
0.25
 40
0.25
 40
0.25
 40
0.25
 40
0.3
 40
0.3
 40
0.3
 40
0.3
 40
0.35
 40
0.35
 40
0.35
 40
0.35
 40
0.4
 40
0.4
 40
0.4
 40
0.4
 40
0.45
 40
0.45
 40
0.45
 40
0.45
 40
0.5
 40
0.5
 40
0.5
 40
0.5
 40
0.55
 40
0.55
 40
0.55
 40
0.55
 40
0.6
 40
0.6
 40
0.6
 40
0.6
 40
0.65
 40
0.65
 40
0.65
 40
0.65
 40
0.7
 40
0.7
 40
0.7
 40
0.7
 40
0.75
 40
0.75
 40
0.75
 40
0.75
 40
0.8
 40
0.8
 40
0.8
 40
0.8
 40
0.85
 40
0.85
 40
0.85
 40
0.85
 40
0.9
 40
0.9
 40
0.9
 40
0.9
 40
1.0
 40
1.0
 40
1.0
 40
1.0
 10
1.354539999999999
 20
-1.667869999999999
 30
0.0
 10
1.354539999999999
 20
-1.667869999999999
 30
0.0
 10
1.354539999999999
 20
-1.667869999999999
 30
0.0
 10
1.354539999999999
 20
-1.667869999999999
 30
0.0
 10
1.354539999999999
 20
-1.667869999999999
 30
0.0
 10
1.354539999999999
 20
-1.667869999999999
 30
0.0
 10
1.059429999999999
 20
-1.667869999999999
 30
0.0
 10
1.059429999999999
 20
-1.667869999999999
 30
0.0
 10
1.059429999999999
 20
-1.667869999999999
 30
0.0
 10
1.059429999999999
 20
-1.667869999999999
 30
0.0
 10
1.047849999999999
 20
-1.748859999999999
 30
0.0
 10
1.047849999999999
 20
-1.748859999999999
 30
0.0
 10
1.047849999999999
 20
-1.748859999999999
 30
0.0
 10
1.047849999999999
 20
-1.748859999999999
 30
0.0
 10
1.16361
 20
-1.748859999999999
 30
0.0
 10
1.16361
 20
-1.748859999999999
 30
0.0
 10
1.16361
 20
-1.748859999999999
 30
0.0
 10
1.16361
 20
-1.748859999999999
 30
0.0
 10
0.7947800000000001
 20
-2.500999999999999
 30
0.0
 10
0.7947800000000001
 20
-2.500999999999999
 30
0.0
 10
0.7947800000000001
 20
-2.500999999999999
 30
0.0
 10
0.7947800000000001
 20
-2.500999999999999
 30
0.0
 10
0.76729
 20
-2.574759999999999
 30
0.0
 10
0.76729
 20
-2.574759999999999
 30
0.0
 10
0.76729
 20
-2.574759999999999
 30
0.0
 10
0.76729
 20
-2.574759999999999
 30
0.0
 10
0.7643900000000001
 20
-2.574759999999999
 30
0.0
 10
0.7643900000000001
 20
-2.574759999999999
 30
0.0
 10
0.7643900000000001
 20
-2.574759999999999
 30
0.0
 10
0.7643900000000001
 20
-2.574759999999999
 30
0.0
 10
0.75716
 20
-2.500999999999999
 30
0.0
 10
0.75716
 20
-2.500999999999999
 30
0.0
 10
0.75716
 20
-2.500999999999999
 30
0.0
 10
0.75716
 20
-2.500999999999999
 30
0.0
 10
0.60674
 20
-1.748859999999999
 30
0.0
 10
0.60674
 20
-1.748859999999999
 30
0.0
 10
0.60674
 20
-1.748859999999999
 30
0.0
 10
0.60674
 20
-1.748859999999999
 30
0.0
 10
0.7137500000000001
 20
-1.748859999999999
 30
0.0
 10
0.7137500000000001
 20
-1.748859999999999
 30
0.0
 10
0.7137500000000001
 20
-1.748859999999999
 30
0.0
 10
0.7137500000000001
 20
-1.748859999999999
 30
0.0
 10
0.72532
 20
-1.667869999999999
 30
0.0
 10
0.72532
 20
-1.667869999999999
 30
0.0
 10
0.72532
 20
-1.667869999999999
 30
0.0
 10
0.72532
 20
-1.667869999999999
 30
0.0
 10
0.4346300000000001
 20
-1.667869999999999
 30
0.0
 10
0.4346300000000001
 20
-1.667869999999999
 30
0.0
 10
0.4346300000000001
 20
-1.667869999999999
 30
0.0
 10
0.4346300000000001
 20
-1.667869999999999
 30
0.0
 10
0.4230500000000001
 20
-1.748859999999999
 30
0.0
 10
0.4230500000000001
 20
-1.748859999999999
 30
0.0
 10
0.4230500000000001
 20
-1.748859999999999
 30
0.0
 10
0.4230500000000001
 20
-1.748859999999999
 30
0.0
 10
0.48954
 20
-1.750309999999999
 30
0.0
 10
0.48954
 20
-1.750309999999999
 30
0.0
 10
0.48954
 20
-1.750309999999999
 30
0.0
 10
0.48954
 20
-1.750309999999999
 30
0.0
 10
0.6848100000000001
 20
-2.676009999999999
 30
0.0
 10
0.6848100000000001
 20
-2.676009999999999
 30
0.0
 10
0.6848100000000001
 20
-2.676009999999999
 30
0.0
 10
0.6848100000000001
 20
-2.676009999999999
 30
0.0
 10
0.8135200000000001
 20
-2.676009999999999
 30
0.0
 10
0.8135200000000001
 20
-2.676009999999999
 30
0.0
 10
0.8135200000000001
 20
-2.676009999999999
 30
0.0
 10
0.8135200000000001
 20
-2.676009999999999
 30
0.0
 10
1.2793
 20
-1.750309999999999
 30
0.0
 10
1.2793
 20
-1.750309999999999
 30
0.0
 10
1.2793
 20
-1.750309999999999
 30
0.0
 10
1.2793
 20
-1.750309999999999
 30
0.0
 10
1.342959999999999
 20
-1.748859999999999
 30
0.0
 10
1.342959999999999
 20
-1.748859999999999
 30
0.0
 10
1.342959999999999
 20
-1.748859999999999
 30
0.0
 10
1.342959999999999
 20
-1.748859999999999
 30
0.0
 10
1.354539999999999
 20
-1.667869999999999
 30
0.0
 10
1.354539999999999
 20
-1.667869999999999
 30
0.0
  0
SPLINE
  5
4A
330
1F
100
AcDbEntity
  8
Ebene 1
 62
   250
100
AcDbSpline
210
0.0
220
0.0
230
1.0
 70
    11
 71
     3
 72
   108
 73
   104
 74
     0
 42
0.0000000001
 43
0.0000000001
 40
0.0
 40
0.0
 40
0.0
 40
0.0
 40
0.037037037037037
 40
0.037037037037037
 40
0.037037037037037
 40
0.037037037037037
 40
0.0740740740740741
 40
0.0740740740740741
 40
0.0740740740740741
 40
0.0740740740740741
 40
0.1111111111111111
 40
0.1111111111111111
 40
0.1111111111111111
 40
0.1111111111111111
 40
0.1481481481481481
 40
0.1481481481481481
 40
0.1481481481481481
 40
0.1481481481481481
 40
0.1851851851851852
 40
0.1851851851851852
 40
0.1851851851851852
 40
0.1851851851851852
 40
0.2222222222222222
 40
0.2222222222222222
 40
0.2222222222222222
 40
0.2222222222222222
 40
0.2592592592592592
 40
0.2592592592592592
 40
0.2592592592592592
 40
0.2592592592592592
 40
0.2962962962962963
 40
0.2962962962962963
 40
0.2962962962962963
 40
0.2962962962962963
 40
0.3333333333333333
 40
0.3333333333333333
 40
0.3333333333333333
 40
0.3333333333333333
 40
0.3703703703703703
 40
0.3703703703703703
 40
0.3703703703703703
 40
0.3703703703703703
 40
0.4074074074074074
 40
0.4074074074074074
 40
0.4074074074074074
 40
0.4074074074074074
 40
0.4444444444444445
 40
0.4444444444444445
 40
0.4444444444444445
 40
0.4444444444444445
 40
0.4814814814814815
 40
0.4814814814814815
 40
0.4814814814814815
 40
0.4814814814814815
 40
0.5185185185185186
 40
0.5185185185185186
 40
0.5185185185185186
 40
0.5185185185185186
 40
0.5555555555555556
 40
0.5555555555555556
 40
0.5555555555555556
 40
0.5555555555555556
 40
0.5925925925925926
 40
0.5925925925925926
 40
0.5925925925925926
 40
0.5925925925925926
 40
0.6296296296296297
 40
0.6296296296296297
 40
0.6296296296296297
 40
0.6296296296296297
 40
0.6666666666666666
 40
0.6666666666666666
 40
0.6666666666666666
 40
0.6666666666666666
 40
0.7037037037037038
 40
0.7037037037037038
 40
0.7037037037037038
 40
0.7037037037037038
 40
0.7407407407407407
 40
0.7407407407407407
 40
0.7407407407407407
 40
0.7407407407407407
 40
0.7777777777777778
 40
0.7777777777777778
 40
0.7777777777777778
 40
0.7777777777777778
 40
0.8148148148148147
 40
0.8148148148148147
 40
0.8148148148148147
 40
0.8148148148148147
 40
0.8518518518518519
 40
0.8518518518518519
 40
0.8518518518518519
 40
0.8518518518518519
 40
0.8888888888888889
 40
0.8888888888888889
 40
0.8888888888888889
 40
0.8888888888888889
 40
0.9259259259259259
 40
0.9259259259259259
 40
0.9259259259259259
 40
0.9259259259259259
 40
1.0
 40
1.0
 40
1.0
 40
1.0
 10
1.96914
 20
-2.587779999999999
 30
0.0
 10
1.96914
 20
-2.587779999999999
 30
0.0
 10
1.96914
 20
-2.587779999999999
 30
0.0
 10
1.96914
 20
-2.587779999999999
 30
0.0
 10
1.96914
 20
-2.587779999999999
 30
0.0
 10
1.96914
 20
-2.587779999999999
 30
0.0
 10
1.866479999999999
 20
-2.58489
 30
0.0
 10
1.866479999999999
 20
-2.58489
 30
0.0
 10
1.866479999999999
 20
-2.58489
 30
0.0
 10
1.866479999999999
 20
-2.58489
 30
0.0
 10
1.866479999999999
 20
-2.548709999999999
 30
0.0
 10
1.866479999999999
 20
-2.548709999999999
 30
0.0
 10
1.866479999999999
 20
-2.548709999999999
 30
0.0
 10
1.866479999999999
 20
-2.548709999999999
 30
0.0
 10
1.93152
 20
-2.088759999999999
 30
0.0
 10
1.93152
 20
-2.088759999999999
 30
0.0
 10
1.93152
 20
-2.088759999999999
 30
0.0
 10
1.93442
 20
-2.071429999999999
 30
0.0
 10
1.93442
 20
-2.05262
 30
0.0
 10
1.93442
 20
-2.04249
 30
0.0
 10
1.93442
 20
-2.04249
 30
0.0
 10
1.93442
 20
-1.931109999999999
 30
0.0
 10
1.843329999999999
 20
-1.899279999999999
 30
0.0
 10
1.73625
 20
-1.899279999999999
 30
0.0
 10
1.73625
 20
-1.899279999999999
 30
0.0
 10
1.73625
 20
-1.899279999999999
 30
0.0
 10
1.575709999999999
 20
-1.899279999999999
 30
0.0
 10
1.575709999999999
 20
-1.899279999999999
 30
0.0
 10
1.575709999999999
 20
-1.899279999999999
 30
0.0
 10
1.525139999999999
 20
-1.899279999999999
 30
0.0
 10
1.43977
 20
-1.906509999999999
 30
0.0
 10
1.393469999999999
 20
-1.932559999999999
 30
0.0
 10
1.393469999999999
 20
-1.932559999999999
 30
0.0
 10
1.393469999999999
 20
-1.932559999999999
 30
0.0
 10
1.36894
 20
-2.10901
 30
0.0
 10
1.36894
 20
-2.10901
 30
0.0
 10
1.36894
 20
-2.10901
 30
0.0
 10
1.36894
 20
-2.10901
 30
0.0
 10
1.47594
 20
-2.10901
 30
0.0
 10
1.47594
 20
-2.10901
 30
0.0
 10
1.47594
 20
-2.10901
 30
0.0
 10
1.47594
 20
-2.10901
 30
0.0
 10
1.491859999999999
 20
-1.99474
 30
0.0
 10
1.491859999999999
 20
-1.99474
 30
0.0
 10
1.491859999999999
 20
-1.99474
 30
0.0
 10
1.491859999999999
 20
-1.99474
 30
0.0
 10
1.708829999999999
 20
-1.99474
 30
0.0
 10
1.708829999999999
 20
-1.99474
 30
0.0
 10
1.708829999999999
 20
-1.99474
 30
0.0
 10
1.775319999999999
 20
-1.99474
 30
0.0
 10
1.81584
 20
-2.007759999999999
 30
0.0
 10
1.81584
 20
-2.06709
 30
0.0
 10
1.81584
 20
-2.06709
 30
0.0
 10
1.81584
 20
-2.07432
 30
0.0
 10
1.81584
 20
-2.088759999999999
 30
0.0
 10
1.81439
 20
-2.09889
 30
0.0
 10
1.81439
 20
-2.09889
 30
0.0
 10
1.81439
 20
-2.09889
 30
0.0
 10
1.79413
 20
-2.243549999999999
 30
0.0
 10
1.79413
 20
-2.243549999999999
 30
0.0
 10
1.79413
 20
-2.243549999999999
 30
0.0
 10
1.79413
 20
-2.243549999999999
 30
0.0
 10
1.51356
 20
-2.243549999999999
 30
0.0
 10
1.51356
 20
-2.243549999999999
 30
0.0
 10
1.51356
 20
-2.243549999999999
 30
0.0
 10
1.38334
 20
-2.243549999999999
 30
0.0
 10
1.292249999999999
 20
-2.291259999999999
 30
0.0
 10
1.271989999999999
 20
-2.43447
 30
0.0
 10
1.271989999999999
 20
-2.43447
 30
0.0
 10
1.271989999999999
 20
-2.43447
 30
0.0
 10
1.26042
 20
-2.51547
 30
0.0
 10
1.26042
 20
-2.51547
 30
0.0
 10
1.26042
 20
-2.51547
 30
0.0
 10
1.25897
 20
-2.522699999999999
 30
0.0
 10
1.26042
 20
-2.53283
 30
0.0
 10
1.26042
 20
-2.540029999999999
 30
0.0
 10
1.26042
 20
-2.540029999999999
 30
0.0
 10
1.26042
 20
-2.6326
 30
0.0
 10
1.326979999999999
 20
-2.686139999999999
 30
0.0
 10
1.43109
 20
-2.686139999999999
 30
0.0
 10
1.43109
 20
-2.686139999999999
 30
0.0
 10
1.43109
 20
-2.686139999999999
 30
0.0
 10
1.55112
 20
-2.686139999999999
 30
0.0
 10
1.55112
 20
-2.686139999999999
 30
0.0
 10
1.55112
 20
-2.686139999999999
 30
0.0
 10
1.64227
 20
-2.686139999999999
 30
0.0
 10
1.71028
 20
-2.642729999999999
 30
0.0
 10
1.75362
 20
-2.595009999999999
 30
0.0
 10
1.75362
 20
-2.595009999999999
 30
0.0
 10
1.75362
 20
-2.595009999999999
 30
0.0
 10
1.757959999999999
 20
-2.595009999999999
 30
0.0
 10
1.757959999999999
 20
-2.595009999999999
 30
0.0
 10
1.757959999999999
 20
-2.595009999999999
 30
0.0
 10
1.757959999999999
 20
-2.595009999999999
 30
0.0
 10
1.770979999999999
 20
-2.668769999999999
 30
0.0
 10
1.770979999999999
 20
-2.668769999999999
 30
0.0
 10
1.770979999999999
 20
-2.668769999999999
 30
0.0
 10
1.770979999999999
 20
-2.668769999999999
 30
0.0
 10
1.95757
 20
-2.668769999999999
 30
0.0
 10
1.95757
 20
-2.668769999999999
 30
0.0
 10
1.95757
 20
-2.668769999999999
 30
0.0
 10
1.95757
 20
-2.668769999999999
 30
0.0
 10
1.96914
 20
-2.587779999999999
 30
0.0
 10
1.96914
 20
-2.587779999999999
 30
0.0
  0
SPLINE
  5
4B
330
1F
100
AcDbEntity
  8
Ebene 1
 62
   250
100
AcDbSpline
210
0.0
220
0.0
230
1.0
 70
    11
 71
     3
 72
    40
 73
    36
 74
     0
 42
0.0000000001
 43
0.0000000001
 40
0.0
 40
0.0
 40
0.0
 40
0.0
 40
0.1
 40
0.1
 40
0.1
 40
0.1
 40
0.2
 40
0.2
 40
0.2
 40
0.2
 40
0.3
 40
0.3
 40
0.3
 40
0.3
 40
0.4
 40
0.4
 40
0.4
 40
0.4
 40
0.5
 40
0.5
 40
0.5
 40
0.5
 40
0.6
 40
0.6
 40
0.6
 40
0.6
 40
0.7
 40
0.7
 40
0.7
 40
0.7
 40
0.8
 40
0.8
 40
0.8
 40
0.8
 40
1.0
 40
1.0
 40
1.0
 40
1.0
 10
1.781109999999999
 20
-2.33033
 30
0.0
 10
1.781109999999999
 20
-2.33033
 30
0.0
 10
1.781109999999999
 20
-2.33033
 30
0.0
 10
1.781109999999999
 20
-2.33033
 30
0.0
 10
1.781109999999999
 20
-2.33033
 30
0.0
 10
1.781109999999999
 20
-2.33033
 30
0.0
 10
1.762299999999999
 20
-2.463379999999999
 30
0.0
 10
1.762299999999999
 20
-2.463379999999999
 30
0.0
 10
1.762299999999999
 20
-2.463379999999999
 30
0.0
 10
1.749279999999999
 20
-2.55884
 30
0.0
 10
1.622009999999999
 20
-2.590679999999999
 30
0.0
 10
1.55979
 20
-2.590679999999999
 30
0.0
 10
1.55979
 20
-2.590679999999999
 30
0.0
 10
1.55979
 20
-2.590679999999999
 30
0.0
 10
1.468709999999999
 20
-2.590679999999999
 30
0.0
 10
1.468709999999999
 20
-2.590679999999999
 30
0.0
 10
1.468709999999999
 20
-2.590679999999999
 30
0.0
 10
1.41807
 20
-2.590679999999999
 30
0.0
 10
1.3761
 20
-2.57186
 30
0.0
 10
1.3761
 20
-2.522699999999999
 30
0.0
 10
1.3761
 20
-2.522699999999999
 30
0.0
 10
1.3761
 20
-2.518359999999999
 30
0.0
 10
1.37755
 20
-2.50678
 30
0.0
 10
1.379
 20
-2.500999999999999
 30
0.0
 10
1.379
 20
-2.500999999999999
 30
0.0
 10
1.379
 20
-2.500999999999999
 30
0.0
 10
1.39202
 20
-2.41855
 30
0.0
 10
1.39202
 20
-2.41855
 30
0.0
 10
1.39202
 20
-2.41855
 30
0.0
 10
1.403599999999999
 20
-2.3448
 30
0.0
 10
1.44266
 20
-2.33033
 30
0.0
 10
1.50922
 20
-2.33033
 30
0.0
 10
1.50922
 20
-2.33033
 30
0.0
 10
1.50922
 20
-2.33033
 30
0.0
 10
1.781109999999999
 20
-2.33033
 30
0.0
 10
1.781109999999999
 20
-2.33033
 30
0.0
  0
SPLINE
  5
4C
330
1F
100
AcDbEntity
  8
Ebene 1
 62
   250
100
AcDbSpline
210
0.0
220
0.0
230
1.0
 70
    11
 71
     3
 72
    40
 73
    36
 74
     0
 42
0.0000000001
 43
0.0000000001
 40
0.0
 40
0.0
 40
0.0
 40
0.0
 40
0.1
 40
0.1
 40
0.1
 40
0.1
 40
0.2
 40
0.2
 40
0.2
 40
0.2
 40
0.3
 40
0.3
 40
0.3
 40
0.3
 40
0.4
 40
0.4
 40
0.4
 40
0.4
 40
0.5
 40
0.5
 40
0.5
 40
0.5
 40
0.6
 40
0.6
 40
0.6
 40
0.6
 40
0.7
 40
0.7
 40
0.7
 40
0.7
 40
0.8
 40
0.8
 40
0.8
 40
0.8
 40
1.0
 40
1.0
 40
1.0
 40
1.0
 10
2.416109999999999
 20
-1.610029999999999
 30
0.0
 10
2.416109999999999
 20
-1.610029999999999
 30
0.0
 10
2.416109999999999
 20
-1.610029999999999
 30
0.0
 10
2.416109999999999
 20
-1.610029999999999
 30
0.0
 10
2.416109999999999
 20
-1.610029999999999
 30
0.0
 10
2.416109999999999
 20
-1.610029999999999
 30
0.0
 10
2.17598
 20
-1.61582
 30
0.0
 10
2.17598
 20
-1.61582
 30
0.0
 10
2.17598
 20
-1.61582
 30
0.0
 10
2.17598
 20
-1.61582
 30
0.0
 10
2.164409999999999
 20
-1.696809999999999
 30
0.0
 10
2.164409999999999
 20
-1.696809999999999
 30
0.0
 10
2.164409999999999
 20
-1.696809999999999
 30
0.0
 10
2.164409999999999
 20
-1.696809999999999
 30
0.0
 10
2.287329999999999
 20
-1.696809999999999
 30
0.0
 10
2.287329999999999
 20
-1.696809999999999
 30
0.0
 10
2.287329999999999
 20
-1.696809999999999
 30
0.0
 10
2.287329999999999
 20
-1.696809999999999
 30
0.0
 10
2.15139
 20
-2.668769999999999
 30
0.0
 10
2.15139
 20
-2.668769999999999
 30
0.0
 10
2.15139
 20
-2.668769999999999
 30
0.0
 10
2.15139
 20
-2.668769999999999
 30
0.0
 10
2.37559
 20
-2.668769999999999
 30
0.0
 10
2.37559
 20
-2.668769999999999
 30
0.0
 10
2.37559
 20
-2.668769999999999
 30
0.0
 10
2.37559
 20
-2.668769999999999
 30
0.0
 10
2.38717
 20
-2.587779999999999
 30
0.0
 10
2.38717
 20
-2.587779999999999
 30
0.0
 10
2.38717
 20
-2.587779999999999
 30
0.0
 10
2.38717
 20
-2.587779999999999
 30
0.0
 10
2.278649999999999
 20
-2.58489
 30
0.0
 10
2.278649999999999
 20
-2.58489
 30
0.0
 10
2.278649999999999
 20
-2.58489
 30
0.0
 10
2.278649999999999
 20
-2.58489
 30
0.0
 10
2.416109999999999
 20
-1.610029999999999
 30
0.0
 10
2.416109999999999
 20
-1.610029999999999
 30
0.0
  0
SPLINE
  5
4D
330
1F
100
AcDbEntity
  8
Ebene 1
 62
   250
100
AcDbSpline
210
0.0
220
0.0
230
1.0
 70
    11
 71
     3
 72
    40
 73
    36
 74
     0
 42
0.0000000001
 43
0.0000000001
 40
0.0
 40
0.0
 40
0.0
 40
0.0
 40
0.1
 40
0.1
 40
0.1
 40
0.1
 40
0.2
 40
0.2
 40
0.2
 40
0.2
 40
0.3
 40
0.3
 40
0.3
 40
0.3
 40
0.4
 40
0.4
 40
0.4
 40
0.4
 40
0.5
 40
0.5
 40
0.5
 40
0.5
 40
0.6
 40
0.6
 40
0.6
 40
0.6
 40
0.7
 40
0.7
 40
0.7
 40
0.7
 40
0.8
 40
0.8
 40
0.8
 40
0.8
 40
1.0
 40
1.0
 40
1.0
 40
1.0
 10
2.87603
 20
-1.610029999999999
 30
0.0
 10
2.87603
 20
-1.610029999999999
 30
0.0
 10
2.87603
 20
-1.610029999999999
 30
0.0
 10
2.87603
 20
-1.610029999999999
 30
0.0
 10
2.87603
 20
-1.610029999999999
 30
0.0
 10
2.87603
 20
-1.610029999999999
 30
0.0
 10
2.635909999999999
 20
-1.61582
 30
0.0
 10
2.635909999999999
 20
-1.61582
 30
0.0
 10
2.635909999999999
 20
-1.61582
 30
0.0
 10
2.635909999999999
 20
-1.61582
 30
0.0
 10
2.62433
 20
-1.696809999999999
 30
0.0
 10
2.62433
 20
-1.696809999999999
 30
0.0
 10
2.62433
 20
-1.696809999999999
 30
0.0
 10
2.62433
 20
-1.696809999999999
 30
0.0
 10
2.74732
 20
-1.696809999999999
 30
0.0
 10
2.74732
 20
-1.696809999999999
 30
0.0
 10
2.74732
 20
-1.696809999999999
 30
0.0
 10
2.74732
 20
-1.696809999999999
 30
0.0
 10
2.61138
 20
-2.668769999999999
 30
0.0
 10
2.61138
 20
-2.668769999999999
 30
0.0
 10
2.61138
 20
-2.668769999999999
 30
0.0
 10
2.61138
 20
-2.668769999999999
 30
0.0
 10
2.83552
 20
-2.668769999999999
 30
0.0
 10
2.83552
 20
-2.668769999999999
 30
0.0
 10
2.83552
 20
-2.668769999999999
 30
0.0
 10
2.83552
 20
-2.668769999999999
 30
0.0
 10
2.84709
 20
-2.587779999999999
 30
0.0
 10
2.84709
 20
-2.587779999999999
 30
0.0
 10
2.84709
 20
-2.587779999999999
 30
0.0
 10
2.84709
 20
-2.587779999999999
 30
0.0
 10
2.73864
 20
-2.58489
 30
0.0
 10
2.73864
 20
-2.58489
 30
0.0
 10
2.73864
 20
-2.58489
 30
0.0
 10
2.73864
 20
-2.58489
 30
0.0
 10
2.87603
 20
-1.610029999999999
 30
0.0
 10
2.87603
 20
-1.610029999999999
 30
0.0
  0
SPLINE
  5
4E
330
1F
100
AcDbEntity
  8
Ebene 1
 62
   250
100
AcDbSpline
210
0.0
220
0.0
230
1.0
 70
    11
 71
     3
 72
    76
 73
    72
 74
     0
 42
0.0000000001
 43
0.0000000001
 40
0.0
 40
0.0
 40
0.0
 40
0.0
 40
0.0526315789473684
 40
0.0526315789473684
 40
0.0526315789473684
 40
0.0526315789473684
 40
0.1052631578947368
 40
0.1052631578947368
 40
0.1052631578947368
 40
0.1052631578947368
 40
0.1578947368421053
 40
0.1578947368421053
 40
0.1578947368421053
 40
0.1578947368421053
 40
0.2105263157894737
 40
0.2105263157894737
 40
0.2105263157894737
 40
0.2105263157894737
 40
0.2631578947368421
 40
0.2631578947368421
 40
0.2631578947368421
 40
0.2631578947368421
 40
0.3157894736842105
 40
0.3157894736842105
 40
0.3157894736842105
 40
0.3157894736842105
 40
0.3684210526315789
 40
0.3684210526315789
 40
0.3684210526315789
 40
0.3684210526315789
 40
0.4210526315789473
 40
0.4210526315789473
 40
0.4210526315789473
 40
0.4210526315789473
 40
0.4736842105263159
 40
0.4736842105263159
 40
0.4736842105263159
 40
0.4736842105263159
 40
0.5263157894736842
 40
0.5263157894736842
 40
0.5263157894736842
 40
0.5263157894736842
 40
0.5789473684210527
 40
0.5789473684210527
 40
0.5789473684210527
 40
0.5789473684210527
 40
0.6315789473684211
 40
0.6315789473684211
 40
0.6315789473684211
 40
0.6315789473684211
 40
0.6842105263157895
 40
0.6842105263157895
 40
0.6842105263157895
 40
0.6842105263157895
 40
0.7368421052631579
 40
0.7368421052631579
 40
0.7368421052631579
 40
0.7368421052631579
 40
0.7894736842105264
 40
0.7894736842105264
 40
0.7894736842105264
 40
0.7894736842105264
 40
0.8421052631578946
 40
0.8421052631578946
 40
0.8421052631578946
 40
0.8421052631578946
 40
0.8947368421052631
 40
0.8947368421052631
 40
0.8947368421052631
 40
0.8947368421052631
 40
1.0
 40
1.0
 40
1.0
 40
1.0
 10
3.69183
 20
-2.090199999999999
 30
0.0
 10
3.69183
 20
-2.090199999999999
 30
0.0
 10
3.69183
 20
-2.090199999999999
 30
0.0
 10
3.69183
 20
-2.090199999999999
 30
0.0
 10
3.69183
 20
-2.090199999999999
 30
0.0
 10
3.69183
 20
-1.936899999999999
 30
0.0
 10
3.581859999999999
 20
-1.899279999999999
 30
0.0
 10
3.447359999999999
 20
-1.899279999999999
 30
0.0
 10
3.447359999999999
 20
-1.899279999999999
 30
0.0
 10
3.447359999999999
 20
-1.899279999999999
 30
0.0
 10
3.40974
 20
-1.899279999999999
 30
0.0
 10
3.40974
 20
-1.899279999999999
 30
0.0
 10
3.40974
 20
-1.899279999999999
 30
0.0
 10
3.246309999999999
 20
-1.899279999999999
 30
0.0
 10
3.113259999999999
 20
-1.94992
 30
0.0
 10
3.08287
 20
-2.161099999999999
 30
0.0
 10
3.08287
 20
-2.161099999999999
 30
0.0
 10
3.08287
 20
-2.161099999999999
 30
0.0
 10
3.042359999999999
 20
-2.44167
 30
0.0
 10
3.042359999999999
 20
-2.44167
 30
0.0
 10
3.042359999999999
 20
-2.44167
 30
0.0
 10
3.03946
 20
-2.46048
 30
0.0
 10
3.03946
 20
-2.47785
 30
0.0
 10
3.03946
 20
-2.493759999999999
 30
0.0
 10
3.03946
 20
-2.493759999999999
 30
0.0
 10
3.03946
 20
-2.63694
 30
0.0
 10
3.14799
 20
-2.686139999999999
 30
0.0
 10
3.26946
 20
-2.686139999999999
 30
0.0
 10
3.26946
 20
-2.686139999999999
 30
0.0
 10
3.26946
 20
-2.686139999999999
 30
0.0
 10
3.43724
 20
-2.686139999999999
 30
0.0
 10
3.43724
 20
-2.686139999999999
 30
0.0
 10
3.43724
 20
-2.686139999999999
 30
0.0
 10
3.49946
 20
-2.686139999999999
 30
0.0
 10
3.560159999999999
 20
-2.668769999999999
 30
0.0
 10
3.59488
 20
-2.642729999999999
 30
0.0
 10
3.59488
 20
-2.642729999999999
 30
0.0
 10
3.59488
 20
-2.642729999999999
 30
0.0
 10
3.602119999999999
 20
-2.587779999999999
 30
0.0
 10
3.602119999999999
 20
-2.587779999999999
 30
0.0
 10
3.602119999999999
 20
-2.587779999999999
 30
0.0
 10
3.602119999999999
 20
-2.587779999999999
 30
0.0
 10
3.28538
 20
-2.587779999999999
 30
0.0
 10
3.28538
 20
-2.587779999999999
 30
0.0
 10
3.28538
 20
-2.587779999999999
 30
0.0
 10
3.191329999999999
 20
-2.587779999999999
 30
0.0
 10
3.155149999999999
 20
-2.554499999999999
 30
0.0
 10
3.155149999999999
 20
-2.48797
 30
0.0
 10
3.155149999999999
 20
-2.48797
 30
0.0
 10
3.155149999999999
 20
-2.476399999999999
 30
0.0
 10
3.1566
 20
-2.463379999999999
 30
0.0
 10
3.15804
 20
-2.448909999999999
 30
0.0
 10
3.15804
 20
-2.448909999999999
 30
0.0
 10
3.15804
 20
-2.448909999999999
 30
0.0
 10
3.176849999999999
 20
-2.312959999999999
 30
0.0
 10
3.176849999999999
 20
-2.312959999999999
 30
0.0
 10
3.176849999999999
 20
-2.312959999999999
 30
0.0
 10
3.176849999999999
 20
-2.312959999999999
 30
0.0
 10
3.561599999999999
 20
-2.312959999999999
 30
0.0
 10
3.561599999999999
 20
-2.312959999999999
 30
0.0
 10
3.561599999999999
 20
-2.312959999999999
 30
0.0
 10
3.561599999999999
 20
-2.312959999999999
 30
0.0
 10
3.66578
 20
-2.295599999999999
 30
0.0
 10
3.66578
 20
-2.295599999999999
 30
0.0
 10
3.66578
 20
-2.295599999999999
 30
0.0
 10
3.66578
 20
-2.295599999999999
 30
0.0
 10
3.68604
 20
-2.145189999999999
 30
0.0
 10
3.68604
 20
-2.145189999999999
 30
0.0
 10
3.68604
 20
-2.145189999999999
 30
0.0
 10
3.68894
 20
-2.129269999999999
 30
0.0
 10
3.69183
 20
-2.10467
 30
0.0
 10
3.69183
 20
-2.090199999999999
 30
0.0
  0
SPLINE
  5
4F
330
1F
100
AcDbEntity
  8
Ebene 1
 62
   250
100
AcDbSpline
210
0.0
220
0.0
230
1.0
 70
    11
 71
     3
 72
    36
 73
    32
 74
     0
 42
0.0000000001
 43
0.0000000001
 40
0.0
 40
0.0
 40
0.0
 40
0.0
 40
0.1111111111111111
 40
0.1111111111111111
 40
0.1111111111111111
 40
0.1111111111111111
 40
0.2222222222222222
 40
0.2222222222222222
 40
0.2222222222222222
 40
0.2222222222222222
 40
0.3333333333333333
 40
0.3333333333333333
 40
0.3333333333333333
 40
0.3333333333333333
 40
0.4444444444444445
 40
0.4444444444444445
 40
0.4444444444444445
 40
0.4444444444444445
 40
0.5555555555555556
 40
0.5555555555555556
 40
0.5555555555555556
 40
0.5555555555555556
 40
0.6666666666666666
 40
0.6666666666666666
 40
0.6666666666666666
 40
0.6666666666666666
 40
0.7777777777777778
 40
0.7777777777777778
 40
0.7777777777777778
 40
0.7777777777777778
 40
1.0
 40
1.0
 40
1.0
 40
1.0
 10
3.578969999999999
 20
-2.088759999999999
 30
0.0
 10
3.578969999999999
 20
-2.088759999999999
 30
0.0
 10
3.578969999999999
 20
-2.088759999999999
 30
0.0
 10
3.578969999999999
 20
-2.088759999999999
 30
0.0
 10
3.578969999999999
 20
-2.088759999999999
 30
0.0
 10
3.578969999999999
 20
-2.09889
 30
0.0
 10
3.578969999999999
 20
-2.10901
 30
0.0
 10
3.577519999999999
 20
-2.120589999999999
 30
0.0
 10
3.577519999999999
 20
-2.120589999999999
 30
0.0
 10
3.577519999999999
 20
-2.120589999999999
 30
0.0
 10
3.561599999999999
 20
-2.226179999999999
 30
0.0
 10
3.561599999999999
 20
-2.226179999999999
 30
0.0
 10
3.561599999999999
 20
-2.226179999999999
 30
0.0
 10
3.561599999999999
 20
-2.226179999999999
 30
0.0
 10
3.188429999999999
 20
-2.226179999999999
 30
0.0
 10
3.188429999999999
 20
-2.226179999999999
 30
0.0
 10
3.188429999999999
 20
-2.226179999999999
 30
0.0
 10
3.188429999999999
 20
-2.226179999999999
 30
0.0
 10
3.201449999999999
 20
-2.136509999999999
 30
0.0
 10
3.201449999999999
 20
-2.136509999999999
 30
0.0
 10
3.201449999999999
 20
-2.136509999999999
 30
0.0
 10
3.214469999999999
 20
-2.04394
 30
0.0
 10
3.26078
 20
-1.99474
 30
0.0
 10
3.372119999999999
 20
-1.99474
 30
0.0
 10
3.372119999999999
 20
-1.99474
 30
0.0
 10
3.372119999999999
 20
-1.99474
 30
0.0
 10
3.445919999999999
 20
-1.99474
 30
0.0
 10
3.445919999999999
 20
-1.99474
 30
0.0
 10
3.445919999999999
 20
-1.99474
 30
0.0
 10
3.531219999999999
 20
-1.99474
 30
0.0
 10
3.578969999999999
 20
-2.013549999999999
 30
0.0
 10
3.578969999999999
 20
-2.088759999999999
 30
0.0
  0
SPLINE
  5
50
330
1F
100
AcDbEntity
  8
Ebene 1
 62
   250
100
AcDbSpline
210
0.0
220
0.0
230
1.0
 70
    11
 71
     3
 72
    84
 73
    80
 74
     0
 42
0.0000000001
 43
0.0000000001
 40
0.0
 40
0.0
 40
0.0
 40
0.0
 40
0.0476190476190476
 40
0.0476190476190476
 40
0.0476190476190476
 40
0.0476190476190476
 40
0.0952380952380952
 40
0.0952380952380952
 40
0.0952380952380952
 40
0.0952380952380952
 40
0.1428571428571428
 40
0.1428571428571428
 40
0.1428571428571428
 40
0.1428571428571428
 40
0.1904761904761905
 40
0.1904761904761905
 40
0.1904761904761905
 40
0.1904761904761905
 40
0.2380952380952381
 40
0.2380952380952381
 40
0.2380952380952381
 40
0.2380952380952381
 40
0.2857142857142857
 40
0.2857142857142857
 40
0.2857142857142857
 40
0.2857142857142857
 40
0.3333333333333333
 40
0.3333333333333333
 40
0.3333333333333333
 40
0.3333333333333333
 40
0.3809523809523809
 40
0.3809523809523809
 40
0.3809523809523809
 40
0.3809523809523809
 40
0.4285714285714285
 40
0.4285714285714285
 40
0.4285714285714285
 40
0.4285714285714285
 40
0.4761904761904762
 40
0.4761904761904762
 40
0.4761904761904762
 40
0.4761904761904762
 40
0.5238095238095239
 40
0.5238095238095239
 40
0.5238095238095239
 40
0.5238095238095239
 40
0.5714285714285714
 40
0.5714285714285714
 40
0.5714285714285714
 40
0.5714285714285714
 40
0.6190476190476191
 40
0.6190476190476191
 40
0.6190476190476191
 40
0.6190476190476191
 40
0.6666666666666666
 40
0.6666666666666666
 40
0.6666666666666666
 40
0.6666666666666666
 40
0.7142857142857144
 40
0.7142857142857144
 40
0.7142857142857144
 40
0.7142857142857144
 40
0.7619047619047619
 40
0.7619047619047619
 40
0.7619047619047619
 40
0.7619047619047619
 40
0.8095238095238094
 40
0.8095238095238094
 40
0.8095238095238094
 40
0.8095238095238094
 40
0.8571428571428571
 40
0.8571428571428571
 40
0.8571428571428571
 40
0.8571428571428571
 40
0.9047619047619047
 40
0.9047619047619047
 40
0.9047619047619047
 40
0.9047619047619047
 40
1.0
 40
1.0
 40
1.0
 40
1.0
 10
4.48296
 20
-2.000529999999999
 30
0.0
 10
4.48296
 20
-2.000529999999999
 30
0.0
 10
4.48296
 20
-2.000529999999999
 30
0.0
 10
4.48296
 20
-2.000529999999999
 30
0.0
 10
4.48296
 20
-2.000529999999999
 30
0.0
 10
4.48296
 20
-2.000529999999999
 30
0.0
 10
4.48296
 20
-1.91664
 30
0.0
 10
4.48296
 20
-1.91664
 30
0.0
 10
4.48296
 20
-1.91664
 30
0.0
 10
4.48296
 20
-1.91664
 30
0.0
 10
4.237049999999999
 20
-1.919529999999999
 30
0.0
 10
4.237049999999999
 20
-1.919529999999999
 30
0.0
 10
4.237049999999999
 20
-1.919529999999999
 30
0.0
 10
4.237049999999999
 20
-1.919529999999999
 30
0.0
 10
4.225469999999999
 20
-2.000529999999999
 30
0.0
 10
4.225469999999999
 20
-2.000529999999999
 30
0.0
 10
4.225469999999999
 20
-2.000529999999999
 30
0.0
 10
4.225469999999999
 20
-2.000529999999999
 30
0.0
 10
4.368719999999999
 20
-2.000529999999999
 30
0.0
 10
4.368719999999999
 20
-2.000529999999999
 30
0.0
 10
4.368719999999999
 20
-2.000529999999999
 30
0.0
 10
4.368719999999999
 20
-2.000529999999999
 30
0.0
 10
4.13149
 20
-2.508229999999999
 30
0.0
 10
4.13149
 20
-2.508229999999999
 30
0.0
 10
4.13149
 20
-2.508229999999999
 30
0.0
 10
4.13149
 20
-2.508229999999999
 30
0.0
 10
4.12715
 20
-2.508229999999999
 30
0.0
 10
4.12715
 20
-2.508229999999999
 30
0.0
 10
4.12715
 20
-2.508229999999999
 30
0.0
 10
4.12715
 20
-2.508229999999999
 30
0.0
 10
4.017249999999999
 20
-1.99763
 30
0.0
 10
4.017249999999999
 20
-1.99763
 30
0.0
 10
4.017249999999999
 20
-1.99763
 30
0.0
 10
4.017249999999999
 20
-1.99763
 30
0.0
 10
4.017249999999999
 20
-1.91664
 30
0.0
 10
4.017249999999999
 20
-1.91664
 30
0.0
 10
4.017249999999999
 20
-1.91664
 30
0.0
 10
4.017249999999999
 20
-1.91664
 30
0.0
 10
3.81041
 20
-1.919529999999999
 30
0.0
 10
3.81041
 20
-1.919529999999999
 30
0.0
 10
3.81041
 20
-1.919529999999999
 30
0.0
 10
3.81041
 20
-1.919529999999999
 30
0.0
 10
3.79883
 20
-2.000529999999999
 30
0.0
 10
3.79883
 20
-2.000529999999999
 30
0.0
 10
3.79883
 20
-2.000529999999999
 30
0.0
 10
3.79883
 20
-2.000529999999999
 30
0.0
 10
3.897159999999999
 20
-2.000529999999999
 30
0.0
 10
3.897159999999999
 20
-2.000529999999999
 30
0.0
 10
3.897159999999999
 20
-2.000529999999999
 30
0.0
 10
3.897159999999999
 20
-2.000529999999999
 30
0.0
 10
4.051909999999999
 20
-2.6572
 30
0.0
 10
4.051909999999999
 20
-2.6572
 30
0.0
 10
4.051909999999999
 20
-2.6572
 30
0.0
 10
4.051909999999999
 20
-2.6572
 30
0.0
 10
3.97819
 20
-2.793179999999999
 30
0.0
 10
3.97819
 20
-2.793179999999999
 30
0.0
 10
3.97819
 20
-2.793179999999999
 30
0.0
 10
3.95793
 20
-2.82932
 30
0.0
 10
3.93478
 20
-2.87272
 30
0.0
 10
3.849469999999999
 20
-2.87272
 30
0.0
 10
3.849469999999999
 20
-2.87272
 30
0.0
 10
3.849469999999999
 20
-2.87272
 30
0.0
 10
3.762659999999999
 20
-2.87272
 30
0.0
 10
3.762659999999999
 20
-2.87272
 30
0.0
 10
3.762659999999999
 20
-2.87272
 30
0.0
 10
3.762659999999999
 20
-2.87272
 30
0.0
 10
3.74964
 20
-2.96674
 30
0.0
 10
3.74964
 20
-2.96674
 30
0.0
 10
3.74964
 20
-2.96674
 30
0.0
 10
3.77858
 20
-2.97398
 30
0.0
 10
3.803169999999999
 20
-2.976869999999999
 30
0.0
 10
3.83645
 20
-2.976869999999999
 30
0.0
 10
3.83645
 20
-2.976869999999999
 30
0.0
 10
3.97819
 20
-2.976869999999999
 30
0.0
 10
4.038949999999999
 20
-2.900179999999999
 30
0.0
 10
4.07362
 20
-2.82932
 30
0.0
 10
4.07362
 20
-2.82932
 30
0.0
 10
4.07362
 20
-2.82932
 30
0.0
 10
4.48296
 20
-2.000529999999999
 30
0.0
 10
4.48296
 20
-2.000529999999999
 30
0.0
  0
SPLINE
  5
51
330
1F
100
AcDbEntity
  8
Ebene 1
 62
   254
100
AcDbSpline
210
0.0
220
0.0
230
1.0
 70
     8
 71
     3
 72
    63
 73
    59
 74
     0
 42
0.0000000001
 43
0.0000000001
 40
0.3697534699443246
 40
0.3697534699443246
 40
0.3697534699443246
 40
0.3697534699443246
 40
0.4117647058823529
 40
0.4117647058823529
 40
0.4117647058823529
 40
0.4117647058823529
 40
0.4705882352941176
 40
0.4705882352941176
 40
0.4705882352941176
 40
0.4705882352941176
 40
0.5294117647058824
 40
0.5294117647058824
 40
0.5294117647058824
 40
0.5294117647058824
 40
0.5882352941176471
 40
0.5882352941176471
 40
0.5882352941176471
 40
0.5882352941176471
 40
0.6470588235294118
 40
0.6470588235294118
 40
0.6470588235294118
 40
0.6470588235294118
 40
0.7058823529411766
 40
0.7058823529411766
 40
0.7058823529411766
 40
0.7058823529411766
 40
0.7647058823529412
 40
0.7647058823529412
 40
0.7647058823529412
 40
0.7647058823529412
 40
0.8235294117647057
 40
0.8235294117647057
 40
0.8235294117647057
 40
0.8235294117647057
 40
0.8823529411764706
 40
0.8823529411764706
 40
0.8823529411764706
 40
0.8823529411764706
 40
1.0
 40
1.0
 40
1.0
 40
1.058823529411764
 40
1.058823529411764
 40
1.058823529411764
 40
1.058823529411764
 40
1.117647058823529
 40
1.117647058823529
 40
1.117647058823529
 40
1.117647058823529
 40
1.176470588235294
 40
1.176470588235294
 40
1.176470588235294
 40
1.176470588235294
 40
1.235294117647058
 40
1.235294117647058
 40
1.235294117647058
 40
1.235294117647058
 40
1.279182000452336
 40
1.279182000452336
 40
1.279182000452336
 40
1.279182000452336
 10
2.003464060719693
 20
0.9907203759689998
 30
0.0
 10
2.597544215634095
 20
0.4651112273464853
 30
0.0
 10
3.63684
 20
-0.4544000000000001
 30
0.0
 10
3.63684
 20
-0.4544000000000001
 30
0.0
 10
3.63684
 20
-0.4544000000000001
 30
0.0
 10
3.74289
 20
-0.54818
 30
0.0
 10
3.872349999999999
 20
-0.5978200000000001
 30
0.0
 10
4.00347
 20
-0.6058500000000001
 30
0.0
 10
4.00347
 20
-0.6058500000000001
 30
0.0
 10
4.005809999999999
 20
-0.60602
 30
0.0
 10
4.008219999999999
 20
-0.6063
 30
0.0
 10
4.01064
 20
-0.60644
 30
0.0
 10
4.01064
 20
-0.60644
 30
0.0
 10
4.021589999999999
 20
-0.60695
 30
0.0
 10
4.03248
 20
-0.6069200000000001
 30
0.0
 10
4.04344
 20
-0.60689
 30
0.0
 10
4.04344
 20
-0.60689
 30
0.0
 10
4.054389999999999
 20
-0.6069200000000001
 30
0.0
 10
4.065349999999999
 20
-0.6069899999999999
 30
0.0
 10
4.076299999999999
 20
-0.60644
 30
0.0
 10
4.076299999999999
 20
-0.60644
 30
0.0
 10
4.07871
 20
-0.6063
 30
0.0
 10
4.081059999999999
 20
-0.60602
 30
0.0
 10
4.083469999999999
 20
-0.6058500000000001
 30
0.0
 10
4.083469999999999
 20
-0.6058500000000001
 30
0.0
 10
4.214519999999999
 20
-0.5978200000000001
 30
0.0
 10
4.34405
 20
-0.54818
 30
0.0
 10
4.450029999999999
 20
-0.4544000000000001
 30
0.0
 10
4.450029999999999
 20
-0.4544000000000001
 30
0.0
 10
4.450029999999999
 20
-0.4544000000000001
 30
0.0
 10
6.487659999999999
 20
1.3483
 30
0.0
 10
6.487659999999999
 20
1.3483
 30
0.0
 10
6.487659999999999
 20
1.3483
 30
0.0
 10
6.487659999999999
 20
1.3483
 30
0.0
 10
6.487659999999999
 20
1.3483
 30
0.0
 10
6.487659999999999
 20
1.348319999999999
 30
0.0
 10
6.487659999999999
 20
1.348319999999999
 30
0.0
 10
6.73998
 20
1.571539999999999
 30
0.0
 10
6.76355
 20
1.957049999999999
 30
0.0
 10
6.5403
 20
2.20937
 30
0.0
 10
6.317059999999999
 20
2.461689999999999
 30
0.0
 10
5.931549999999999
 20
2.485269999999999
 30
0.0
 10
5.67923
 20
2.26204
 30
0.0
 10
5.67923
 20
2.26204
 30
0.0
 10
5.67923
 20
2.262029999999999
 30
0.0
 10
5.67923
 20
2.262029999999999
 30
0.0
 10
5.67923
 20
2.262029999999999
 30
0.0
 10
5.67923
 20
2.262029999999999
 30
0.0
 10
5.67923
 20
2.262029999999999
 30
0.0
 10
4.04344
 20
0.8148099999999999
 30
0.0
 10
4.04344
 20
0.8148099999999999
 30
0.0
 10
4.04344
 20
0.8148099999999999
 30
0.0
 10
4.04344
 20
0.8148099999999999
 30
0.0
 10
2.407629999999999
 20
2.26204
 30
0.0
 10
2.407629999999999
 20
2.26204
 30
0.0
 10
2.407629999999999
 20
2.26204
 30
0.0
 10
2.219383020919806
 20
2.428590565336576
 30
0.0
 10
1.956989426900652
 20
2.457752797091436
 30
0.0
 10
1.743192271920019
 20
2.357031489828336
 30
0.0
  0
SPLINE
  5
52
330
1F
100
AcDbEntity
  8
Ebene 1
 62
   253
100
AcDbSpline
210
0.0
220
0.0
230
1.0
 70
    11
 71
     3
 72
   236
 73
   232
 74
     0
 42
0.0000000001
 43
0.0000000001
 40
0.0
 40
0.0
 40
0.0
 40
0.0
 40
0.0169491525423729
 40
0.0169491525423729
 40
0.0169491525423729
 40
0.0169491525423729
 40
0.0338983050847458
 40
0.0338983050847458
 40
0.0338983050847458
 40
0.0338983050847458
 40
0.0508474576271186
 40
0.0508474576271186
 40
0.0508474576271186
 40
0.0508474576271186
 40
0.0677966101694915
 40
0.0677966101694915
 40
0.0677966101694915
 40
0.0677966101694915
 40
0.0847457627118644
 40
0.0847457627118644
 40
0.0847457627118644
 40
0.0847457627118644
 40
0.1016949152542373
 40
0.1016949152542373
 40
0.1016949152542373
 40
0.1016949152542373
 40
0.1186440677966102
 40
0.1186440677966102
 40
0.1186440677966102
 40
0.1186440677966102
 40
0.1355932203389831
 40
0.1355932203389831
 40
0.1355932203389831
 40
0.1355932203389831
 40
0.1525423728813559
 40
0.1525423728813559
 40
0.1525423728813559
 40
0.1525423728813559
 40
0.1694915254237288
 40
0.1694915254237288
 40
0.1694915254237288
 40
0.1694915254237288
 40
0.1864406779661017
 40
0.1864406779661017
 40
0.1864406779661017
 40
0.1864406779661017
 40
0.2033898305084746
 40
0.2033898305084746
 40
0.2033898305084746
 40
0.2033898305084746
 40
0.2203389830508475
 40
0.2203389830508475
 40
0.2203389830508475
 40
0.2203389830508475
 40
0.2372881355932203
 40
0.2372881355932203
 40
0.2372881355932203
 40
0.2372881355932203
 40
0.2542372881355932
 40
0.2542372881355932
 40
0.2542372881355932
 40
0.2542372881355932
 40
0.2711864406779661
 40
0.2711864406779661
 40
0.2711864406779661
 40
0.2711864406779661
 40
0.288135593220339
 40
0.288135593220339
 40
0.288135593220339
 40
0.288135593220339
 40
0.3050847457627119
 40
0.3050847457627119
 40
0.3050847457627119
 40
0.3050847457627119
 40
0.3220338983050847
 40
0.3220338983050847
 40
0.3220338983050847
 40
0.3220338983050847
 40
0.3389830508474576
 40
0.3389830508474576
 40
0.3389830508474576
 40
0.3389830508474576
 40
0.3559322033898305
 40
0.3559322033898305
 40
0.3559322033898305
 40
0.3559322033898305
 40
0.3728813559322034
 40
0.3728813559322034
 40
0.3728813559322034
 40
0.3728813559322034
 40
0.3898305084745763
 40
0.3898305084745763
 40
0.3898305084745763
 40
0.3898305084745763
 40
0.4067796610169492
 40
0.4067796610169492
 40
0.4067796610169492
 40
0.4067796610169492
 40
0.423728813559322
 40
0.423728813559322
 40
0.423728813559322
 40
0.423728813559322
 40
0.4406779661016949
 40
0.4406779661016949
 40
0.4406779661016949
 40
0.4406779661016949
 40
0.4576271186440679
 40
0.4576271186440679
 40
0.4576271186440679
 40
0.4576271186440679
 40
0.4745762711864407
 40
0.4745762711864407
 40
0.4745762711864407
 40
0.4745762711864407
 40
0.4915254237288136
 40
0.4915254237288136
 40
0.4915254237288136
 40
0.4915254237288136
 40
0.5084745762711865
 40
0.5084745762711865
 40
0.5084745762711865
 40
0.5084745762711865
 40
0.5254237288135594
 40
0.5254237288135594
 40
0.5254237288135594
 40
0.5254237288135594
 40
0.5423728813559322
 40
0.5423728813559322
 40
0.5423728813559322
 40
0.5423728813559322
 40
0.5593220338983051
 40
0.5593220338983051
 40
0.5593220338983051
 40
0.5593220338983051
 40
0.5762711864406781
 40
0.5762711864406781
 40
0.5762711864406781
 40
0.5762711864406781
 40
0.5932203389830509
 40
0.5932203389830509
 40
0.5932203389830509
 40
0.5932203389830509
 40
0.6101694915254238
 40
0.6101694915254238
 40
0.6101694915254238
 40
0.6101694915254238
 40
0.6271186440677967
 40
0.6271186440677967
 40
0.6271186440677967
 40
0.6271186440677967
 40
0.6440677966101695
 40
0.6440677966101695
 40
0.6440677966101695
 40
0.6440677966101695
 40
0.6610169491525424
 40
0.6610169491525424
 40
0.6610169491525424
 40
0.6610169491525424
 40
0.6779661016949153
 40
0.6779661016949153
 40
0.6779661016949153
 40
0.6779661016949153
 40
0.6949152542372882
 40
0.6949152542372882
 40
0.6949152542372882
 40
0.6949152542372882
 40
0.7118644067796609
 40
0.7118644067796609
 40
0.7118644067796609
 40
0.7118644067796609
 40
0.7288135593220339
 40
0.7288135593220339
 40
0.7288135593220339
 40
0.7288135593220339
 40
0.7457627118644068
 40
0.7457627118644068
 40
0.7457627118644068
 40
0.7457627118644068
 40
0.7627118644067796
 40
0.7627118644067796
 40
0.7627118644067796
 40
0.7627118644067796
 40
0.7796610169491526
 40
0.7796610169491526
 40
0.7796610169491526
 40
0.7796610169491526
 40
0.7966101694915255
 40
0.7966101694915255
 40
0.7966101694915255
 40
0.7966101694915255
 40
0.8135593220338982
 40
0.8135593220338982
 40
0.8135593220338982
 40
0.8135593220338982
 40
0.8305084745762712
 40
0.8305084745762712
 40
0.8305084745762712
 40
0.8305084745762712
 40
0.8474576271186439
 40
0.8474576271186439
 40
0.8474576271186439
 40
0.8474576271186439
 40
0.8644067796610171
 40
0.8644067796610171
 40
0.8644067796610171
 40
0.8644067796610171
 40
0.8813559322033897
 40
0.8813559322033897
 40
0.8813559322033897
 40
0.8813559322033897
 40
0.8983050847457628
 40
0.8983050847457628
 40
0.8983050847457628
 40
0.8983050847457628
 40
0.9152542372881356
 40
0.9152542372881356
 40
0.9152542372881356
 40
0.9152542372881356
 40
0.9322033898305084
 40
0.9322033898305084
 40
0.9322033898305084
 40
0.9322033898305084
 40
0.9491525423728813
 40
0.9491525423728813
 40
0.9491525423728813
 40
0.9491525423728813
 40
0.9661016949152541
 40
0.9661016949152541
 40
0.9661016949152541
 40
0.9661016949152541
 40
1.0
 40
1.0
 40
1.0
 40
1.0
 10
2.460339999999999
 20
2.20937
 30
0.0
 10
2.237099999999999
 20
2.461689999999999
 30
0.0
 10
1.851599999999999
 20
2.485269999999999
 30
0.0
 10
1.59928
 20
2.26204
 30
0.0
 10
1.59928
 20
2.26204
 30
0.0
 10
1.59928
 20
2.262029999999999
 30
0.0
 10
1.59928
 20
2.262029999999999
 30
0.0
 10
1.59928
 20
2.262029999999999
 30
0.0
 10
1.59928
 20
2.262029999999999
 30
0.0
 10
1.59928
 20
2.262029999999999
 30
0.0
 10
-0.03653
 20
0.8148099999999999
 30
0.0
 10
-0.03653
 20
0.8148099999999999
 30
0.0
 10
-0.03653
 20
0.8148099999999999
 30
0.0
 10
-0.03653
 20
0.8148099999999999
 30
0.0
 10
-1.672329999999999
 20
2.26204
 30
0.0
 10
-1.672329999999999
 20
2.26204
 30
0.0
 10
-1.672329999999999
 20
2.26204
 30
0.0
 10
-1.6775
 20
2.26661
 30
0.0
 10
-1.68304
 20
2.270449999999999
 30
0.0
 10
-1.688329999999999
 20
2.27483
 30
0.0
 10
-1.688329999999999
 20
2.27483
 30
0.0
 10
-1.69772
 20
2.28259
 30
0.0
 10
-1.707059999999999
 20
2.29042
 30
0.0
 10
-1.716809999999999
 20
2.29754
 30
0.0
 10
-1.716809999999999
 20
2.29754
 30
0.0
 10
-1.723679999999999
 20
2.30259
 30
0.0
 10
-1.730809999999999
 20
2.307069999999999
 30
0.0
 10
-1.73784
 20
2.31179
 30
0.0
 10
-1.73784
 20
2.31179
 30
0.0
 10
-1.747549999999999
 20
2.31828
 30
0.0
 10
-1.75722
 20
2.32485
 30
0.0
 10
-1.76722
 20
2.33074
 30
0.0
 10
-1.76722
 20
2.33074
 30
0.0
 10
-1.77529
 20
2.33549
 30
0.0
 10
-1.783549999999999
 20
2.339659999999999
 30
0.0
 10
-1.79177
 20
2.343999999999999
 30
0.0
 10
-1.79177
 20
2.343999999999999
 30
0.0
 10
-1.80104
 20
2.348899999999999
 30
0.0
 10
-1.81024
 20
2.353909999999999
 30
0.0
 10
-1.81969
 20
2.358279999999999
 30
0.0
 10
-1.81969
 20
2.358279999999999
 30
0.0
 10
-1.829029999999999
 20
2.36262
 30
0.0
 10
-1.83852
 20
2.36634
 30
0.0
 10
-1.848
 20
2.370169999999999
 30
0.0
 10
-1.848
 20
2.370169999999999
 30
0.0
 10
-1.8567
 20
2.373679999999999
 30
0.0
 10
-1.865329999999999
 20
2.377329999999999
 30
0.0
 10
-1.874159999999999
 20
2.380419999999999
 30
0.0
 10
-1.874159999999999
 20
2.380419999999999
 30
0.0
 10
-1.88439
 20
2.38402
 30
0.0
 10
-1.894759999999999
 20
2.387
 30
0.0
 10
-1.905109999999999
 20
2.390029999999999
 30
0.0
 10
-1.905109999999999
 20
2.390029999999999
 30
0.0
 10
-1.91356
 20
2.39249
 30
0.0
 10
-1.921929999999999
 20
2.39508
 30
0.0
 10
-1.93044
 20
2.39718
 30
0.0
 10
-1.93044
 20
2.39718
 30
0.0
 10
-1.941029999999999
 20
2.399779999999999
 30
0.0
 10
-1.951709999999999
 20
2.40178
 30
0.0
 10
-1.96239
 20
2.40381
 30
0.0
 10
-1.96239
 20
2.40381
 30
0.0
 10
-1.970999999999999
 20
2.405429999999999
 30
0.0
 10
-1.97957
 20
2.407179999999999
 30
0.0
 10
-1.988209999999999
 20
2.408459999999999
 30
0.0
 10
-1.988209999999999
 20
2.408459999999999
 30
0.0
 10
-1.998629999999999
 20
2.40998
 30
0.0
 10
-2.009069999999999
 20
2.410909999999999
 30
0.0
 10
-2.01953
 20
2.411869999999999
 30
0.0
 10
-2.01953
 20
2.411869999999999
 30
0.0
 10
-2.02868
 20
2.412729999999999
 30
0.0
 10
-2.037799999999999
 20
2.413699999999999
 30
0.0
 10
-2.046969999999999
 20
2.414149999999999
 30
0.0
 10
-2.046969999999999
 20
2.414149999999999
 30
0.0
 10
-2.05684
 20
2.414609999999999
 30
0.0
 10
-2.06667
 20
2.41454
 30
0.0
 10
-2.076529999999999
 20
2.41454
 30
0.0
 10
-2.076529999999999
 20
2.41454
 30
0.0
 10
-2.086399999999999
 20
2.41454
 30
0.0
 10
-2.096229999999999
 20
2.414609999999999
 30
0.0
 10
-2.10609
 20
2.414149999999999
 30
0.0
 10
-2.10609
 20
2.414149999999999
 30
0.0
 10
-2.115259999999999
 20
2.413699999999999
 30
0.0
 10
-2.124379999999999
 20
2.412729999999999
 30
0.0
 10
-2.133539999999999
 20
2.411869999999999
 30
0.0
 10
-2.133539999999999
 20
2.411869999999999
 30
0.0
 10
-2.144
 20
2.410909999999999
 30
0.0
 10
-2.15444
 20
2.40998
 30
0.0
 10
-2.16484
 20
2.408459999999999
 30
0.0
 10
-2.16484
 20
2.408459999999999
 30
0.0
 10
-2.1735
 20
2.407179999999999
 30
0.0
 10
-2.182069999999999
 20
2.405429999999999
 30
0.0
 10
-2.190659999999999
 20
2.40379
 30
0.0
 10
-2.190659999999999
 20
2.40379
 30
0.0
 10
-2.201359999999999
 20
2.40178
 30
0.0
 10
-2.212019999999999
 20
2.399779999999999
 30
0.0
 10
-2.222609999999999
 20
2.39718
 30
0.0
 10
-2.222609999999999
 20
2.39718
 30
0.0
 10
-2.23112
 20
2.39508
 30
0.0
 10
-2.239509999999999
 20
2.392469999999999
 30
0.0
 10
-2.24794
 20
2.390029999999999
 30
0.0
 10
-2.24794
 20
2.390029999999999
 30
0.0
 10
-2.258309999999999
 20
2.387
 30
0.0
 10
-2.268659999999999
 20
2.38402
 30
0.0
 10
-2.27889
 20
2.38043
 30
0.0
 10
-2.27889
 20
2.38043
 30
0.0
 10
-2.287729999999999
 20
2.377329999999999
 30
0.0
 10
-2.296359999999999
 20
2.373679999999999
 30
0.0
 10
-2.30507
 20
2.370169999999999
 30
0.0
 10
-2.30507
 20
2.370169999999999
 30
0.0
 10
-2.31455
 20
2.36634
 30
0.0
 10
-2.32404
 20
2.36262
 30
0.0
 10
-2.333359999999999
 20
2.358299999999999
 30
0.0
 10
-2.333359999999999
 20
2.358299999999999
 30
0.0
 10
-2.342829999999999
 20
2.353909999999999
 30
0.0
 10
-2.35203
 20
2.348899999999999
 30
0.0
 10
-2.361299999999999
 20
2.343999999999999
 30
0.0
 10
-2.361299999999999
 20
2.343999999999999
 30
0.0
 10
-2.36952
 20
2.339659999999999
 30
0.0
 10
-2.37778
 20
2.33549
 30
0.0
 10
-2.385829999999999
 20
2.33074
 30
0.0
 10
-2.385829999999999
 20
2.33074
 30
0.0
 10
-2.39584
 20
2.32485
 30
0.0
 10
-2.405499999999999
 20
2.31828
 30
0.0
 10
-2.415209999999999
 20
2.31179
 30
0.0
 10
-2.415209999999999
 20
2.31179
 30
0.0
 10
-2.422259999999999
 20
2.307069999999999
 30
0.0
 10
-2.42937
 20
2.30259
 30
0.0
 10
-2.436259999999999
 20
2.297559999999999
 30
0.0
 10
-2.436259999999999
 20
2.297559999999999
 30
0.0
 10
-2.44599
 20
2.29042
 30
0.0
 10
-2.45535
 20
2.28259
 30
0.0
 10
-2.464739999999999
 20
2.27483
 30
0.0
 10
-2.464739999999999
 20
2.27483
 30
0.0
 10
-2.470009999999999
 20
2.270449999999999
 30
0.0
 10
-2.47555
 20
2.26661
 30
0.0
 10
-2.480739999999999
 20
2.26204
 30
0.0
 10
-2.480739999999999
 20
2.26204
 30
0.0
 10
-2.480739999999999
 20
2.262029999999999
 30
0.0
 10
-2.480739999999999
 20
2.262029999999999
 30
0.0
 10
-2.480739999999999
 20
2.262029999999999
 30
0.0
 10
-2.480739999999999
 20
2.262029999999999
 30
0.0
 10
-2.480739999999999
 20
2.262029999999999
 30
0.0
 10
-4.116519999999999
 20
0.8148099999999999
 30
0.0
 10
-4.116519999999999
 20
0.8148099999999999
 30
0.0
 10
-4.116519999999999
 20
0.8148099999999999
 30
0.0
 10
-4.116519999999999
 20
0.8148099999999999
 30
0.0
 10
-5.75232
 20
2.26204
 30
0.0
 10
-5.75232
 20
2.26204
 30
0.0
 10
-5.75232
 20
2.26204
 30
0.0
 10
-6.00464
 20
2.485269999999999
 30
0.0
 10
-6.39015
 20
2.461689999999999
 30
0.0
 10
-6.613389999999998
 20
2.20937
 30
0.0
 10
-6.613389999999998
 20
2.20937
 30
0.0
 10
-6.83661
 20
1.957049999999999
 30
0.0
 10
-6.81303
 20
1.571539999999999
 30
0.0
 10
-6.56071
 20
1.348319999999999
 30
0.0
 10
-6.56071
 20
1.348319999999999
 30
0.0
 10
-6.56071
 20
1.348319999999999
 30
0.0
 10
-4.523109999999999
 20
-0.4544000000000001
 30
0.0
 10
-4.523109999999999
 20
-0.4544000000000001
 30
0.0
 10
-4.523109999999999
 20
-0.4544000000000001
 30
0.0
 10
-4.41713
 20
-0.54818
 30
0.0
 10
-4.287619999999999
 20
-0.5978200000000001
 30
0.0
 10
-4.15654
 20
-0.6058500000000001
 30
0.0
 10
-4.15654
 20
-0.6058500000000001
 30
0.0
 10
-4.15416
 20
-0.6059899999999999
 30
0.0
 10
-4.151769999999999
 20
-0.6063
 30
0.0
 10
-4.149369999999999
 20
-0.60644
 30
0.0
 10
-4.149369999999999
 20
-0.60644
 30
0.0
 10
-4.13843
 20
-0.60695
 30
0.0
 10
-4.127489999999999
 20
-0.6069200000000001
 30
0.0
 10
-4.11654
 20
-0.60689
 30
0.0
 10
-4.11654
 20
-0.60689
 30
0.0
 10
-4.105569999999999
 20
-0.6069200000000001
 30
0.0
 10
-4.09463
 20
-0.6069899999999999
 30
0.0
 10
-4.083669999999999
 20
-0.60644
 30
0.0
 10
-4.083669999999999
 20
-0.60644
 30
0.0
 10
-4.08128
 20
-0.6063
 30
0.0
 10
-4.078899999999999
 20
-0.60602
 30
0.0
 10
-4.076529999999999
 20
-0.6058500000000001
 30
0.0
 10
-4.076529999999999
 20
-0.6058500000000001
 30
0.0
 10
-3.945439999999999
 20
-0.5978200000000001
 30
0.0
 10
-3.815919999999999
 20
-0.54818
 30
0.0
 10
-3.70995
 20
-0.4544000000000001
 30
0.0
 10
-3.70995
 20
-0.4544000000000001
 30
0.0
 10
-3.70995
 20
-0.4544000000000001
 30
0.0
 10
-2.076529999999999
 20
0.9907199999999999
 30
0.0
 10
-2.076529999999999
 20
0.9907199999999999
 30
0.0
 10
-2.076529999999999
 20
0.9907199999999999
 30
0.0
 10
-2.076529999999999
 20
0.9907199999999999
 30
0.0
 10
-0.44312
 20
-0.4544000000000001
 30
0.0
 10
-0.44312
 20
-0.4544000000000001
 30
0.0
 10
-0.44312
 20
-0.4544000000000001
 30
0.0
 10
-0.44312
 20
-0.4544000000000001
 30
0.0
 10
-0.44312
 20
-0.4544000000000001
 30
0.0
 10
-0.4431
 20
-0.4544000000000001
 30
0.0
 10
-0.4431
 20
-0.4544000000000001
 30
0.0
 10
-0.3371300000000001
 20
-0.54818
 30
0.0
 10
-0.20762
 20
-0.5978200000000001
 30
0.0
 10
-0.07654
 20
-0.6058500000000001
 30
0.0
 10
-0.07654
 20
-0.6058500000000001
 30
0.0
 10
-0.07415
 20
-0.60602
 30
0.0
 10
-0.07177
 20
-0.6063
 30
0.0
 10
-0.06938
 20
-0.60644
 30
0.0
 10
-0.06938
 20
-0.60644
 30
0.0
 10
-0.05842
 20
-0.60695
 30
0.0
 10
-0.04749
 20
-0.6069200000000001
 30
0.0
 10
-0.03653
 20
-0.60689
 30
0.0
 10
-0.03653
 20
-0.60689
 30
0.0
 10
-0.02557
 20
-0.6069200000000001
 30
0.0
 10
-0.01464
 20
-0.6069899999999999
 30
0.0
 10
-0.00368
 20
-0.60644
 30
0.0
 10
-0.00368
 20
-0.60644
 30
0.0
 10
-0.00129
 20
-0.6063
 30
0.0
 10
0.00108
 20
-0.60602
 30
0.0
 10
0.00347
 20
-0.6058500000000001
 30
0.0
 10
0.00347
 20
-0.6058500000000001
 30
0.0
 10
0.13456
 20
-0.5978200000000001
 30
0.0
 10
0.26403
 20
-0.54818
 30
0.0
 10
0.3700699999999999
 20
-0.4544000000000001
 30
0.0
 10
0.3700699999999999
 20
-0.4544000000000001
 30
0.0
 10
0.3700699999999999
 20
-0.4544000000000001
 30
0.0
 10
2.407629999999999
 20
1.3483
 30
0.0
 10
2.407629999999999
 20
1.3483
 30
0.0
 10
2.407629999999999
 20
1.3483
 30
0.0
 10
2.407629999999999
 20
1.3483
 30
0.0
 10
2.407629999999999
 20
1.3483
 30
0.0
 10
2.407629999999999
 20
1.348319999999999
 30
0.0
 10
2.407629999999999
 20
1.348319999999999
 30
0.0
 10
2.659949999999999
 20
1.571539999999999
 30
0.0
 10
2.68352
 20
1.957049999999999
 30
0.0
 10
2.460339999999999
 20
2.20937
 30
0.0
  0
ENDSEC
  0
SECTION
  2
OBJECTS
  0
DICTIONARY
  5
C
330
0
100
AcDbDictionary
281
     1
  3
ACAD_COLOR
350
7D
  3
ACAD_GROUP
350
D
  3
ACAD_LAYOUT
350
1A
  3
ACAD_MATERIAL
350
3B
  3
ACAD_MLEADERSTYLE
350
7A
  3
ACAD_MLINESTYLE
350
17
  3
ACAD_PLOTSETTINGS
350
19
  3
ACAD_PLOTSTYLENAME
350
E
  3
ACAD_TABLESTYLE
350
79
  3
ACAD_VISUALSTYLE
350
2A
  3
ACDBHEADERROUNDTRIPXREC
350
88
  3
AcDbVariableDictionary
350
81
  3
DWGPROPS
350
87
  0
DICTIONARY
  5
7D
102
{ACAD_REACTORS
330
C
102
}
330
C
100
AcDbDictionary
281
     1
  0
DICTIONARY
  5
D
102
{ACAD_REACTORS
330
C
102
}
330
C
100
AcDbDictionary
281
     1
  0
DICTIONARY
  5
1A
102
{ACAD_REACTORS
330
C
102
}
330
C
100
AcDbDictionary
281
     1
  3
Layout1
350
1E
  3
Layout2
350
26
  3
Model
350
22
  0
DICTIONARY
  5
3B
102
{ACAD_REACTORS
330
C
102
}
330
C
100
AcDbDictionary
281
     1
  3
ByBlock
350
3D
  3
ByLayer
350
3C
  3
Global
350
3E
  0
DICTIONARY
  5
7A
102
{ACAD_REACTORS
330
C
102
}
330
C
100
AcDbDictionary
281
     1
  0
DICTIONARY
  5
17
102
{ACAD_REACTORS
330
C
102
}
330
C
100
AcDbDictionary
281
     1
  3
Standard
350
18
  0
DICTIONARY
  5
19
102
{ACAD_REACTORS
330
C
102
}
330
C
100
AcDbDictionary
281
     1
  0
ACDBDICTIONARYWDFLT
  5
E
102
{ACAD_REACTORS
330
C
102
}
330
C
100
AcDbDictionary
281
     1
  3
Normal
350
F
100
AcDbDictionaryWithDefault
340
F
  0
DICTIONARY
  5
79
102
{ACAD_REACTORS
330
C
102
}
330
C
100
AcDbDictionary
281
     1
  3
Standard
350
7E
  0
DICTIONARY
  5
2A
102
{ACAD_REACTORS
330
C
102
}
330
C
100
AcDbDictionary
281
     1
  3
2dWireframe
350
2F
  3
3D Hidden
350
31
  3
3dWireframe
350
30
  3
Basic
350
32
  3
Brighten
350
36
  3
ColorChange
350
3A
  3
Conceptual
350
34
  3
Dim
350
35
  3
Facepattern
350
39
  3
Flat
350
2B
  3
FlatWithEdges
350
2C
  3
Gouraud
350
2D
  3
GouraudWithEdges
350
2E
  3
Linepattern
350
38
  3
Realistic
350
33
  3
Thicken
350
37
  0
DICTIONARY
  5
88
102
{ACAD_REACTORS
330
C
102
}
330
C
100
AcDbDictionary
281
     1
  0
DICTIONARY
  5
81
102
{ACAD_REACTORS
330
C
102
}
330
C
100
AcDbDictionary
281
     1
  3
CTABLESTYLE
350
82
  3
DIMASSOC
350
84
  3
HIDETEXT
350
83
  3
PROJECTNAME
350
85
  0
XRECORD
  5
87
102
{ACAD_REACTORS
330
C
102
}
330
C
100
AcDbXrecord
280
     1
  1
DWGPROPS COOKIE
  2

  3

  4

  6

  7

  8

  9

300
=
301
=
302
=
303
=
304
=
305
=
306
=
307
=
308
=
309
=
 40
0.0001986342592593
 41
2455469.721640613
 42
2455469.721928472
  1

 90
        0
  0
LAYOUT
  5
1E
102
{ACAD_XDICTIONARY
360
89
102
}
102
{ACAD_REACTORS
330
1A
102
}
330
1A
100
AcDbPlotSettings
  1

  2
none_device
  4

  6

 40
0.0
 41
0.0
 42
0.0
 43
0.0
 44
0.0
 45
0.0
 46
0.0
 47
0.0
 48
0.0
 49
0.0
140
0.0
141
0.0
142
1.0
143
1.0
 70
   688
 72
     0
 73
     0
 74
     5
  7

 75
    16
147
1.0
148
0.0
149
0.0
100
AcDbLayout
  1
Layout1
 70
     1
 71
     1
 10
0.0
 20
0.0
 11
12.0
 21
9.0
 12
0.0
 22
0.0
 32
0.0
 14
1.000000000000000E+20
 24
1.000000000000000E+20
 34
1.000000000000000E+20
 15
-1.000000000000000E+20
 25
-1.000000000000000E+20
 35
-1.000000000000000E+20
146
0.0
 13
0.0
 23
0.0
 33
0.0
 16
1.0
 26
0.0
 36
0.0
 17
0.0
 27
1.0
 37
0.0
 76
     0
330
1B
  0
LAYOUT
  5
26
102
{ACAD_XDICTIONARY
360
8D
102
}
102
{ACAD_REACTORS
330
1A
102
}
330
1A
100
AcDbPlotSettings
  1

  2
none_device
  4

  6

 40
0.0
 41
0.0
 42
0.0
 43
0.0
 44
0.0
 45
0.0
 46
0.0
 47
0.0
 48
0.0
 49
0.0
140
0.0
141
0.0
142
1.0
143
1.0
 70
   688
 72
     0
 73
     0
 74
     5
  7

 75
    16
147
1.0
148
0.0
149
0.0
100
AcDbLayout
  1
Layout2
 70
     1
 71
     2
 10
0.0
 20
0.0
 11
0.0
 21
0.0
 12
0.0
 22
0.0
 32
0.0
 14
0.0
 24
0.0
 34
0.0
 15
0.0
 25
0.0
 35
0.0
146
0.0
 13
0.0
 23
0.0
 33
0.0
 16
1.0
 26
0.0
 36
0.0
 17
0.0
 27
1.0
 37
0.0
 76
     0
330
23
  0
LAYOUT
  5
22
102
{ACAD_XDICTIONARY
360
8B
102
}
102
{ACAD_REACTORS
330
1A
102
}
330
1A
100
AcDbPlotSettings
  1

  2
none_device
  4

  6

 40
0.0
 41
0.0
 42
0.0
 43
0.0
 44
0.0
 45
0.0
 46
0.0
 47
0.0
 48
0.0
 49
0.0
140
0.0
141
0.0
142
1.0
143
1.0
 70
  1712
 72
     0
 73
     0
 74
     0
  7

 75
     0
147
1.0
148
0.0
149
0.0
100
AcDbLayout
  1
Model
 70
     1
 71
     0
 10
0.0
 20
0.0
 11
12.0
 21
9.0
 12
0.0
 22
0.0
 32
0.0
 14
-6.76653
 24
-2.976869999999999
 34
0.0
 15
6.693469999999999
 25
2.415189999999999
 35
0.0
146
0.0
 13
0.0
 23
0.0
 33
0.0
 16
1.0
 26
0.0
 36
0.0
 17
0.0
 27
1.0
 37
0.0
 76
     0
330
1F
331
29
  0
MATERIAL
  5
3D
102
{ACAD_XDICTIONARY
360
75
102
}
102
{ACAD_REACTORS
330
3B
102
}
330
3B
100
AcDbMaterial
  1
ByBlock
  0
MATERIAL
  5
3C
102
{ACAD_XDICTIONARY
360
73
102
}
102
{ACAD_REACTORS
330
3B
102
}
330
3B
100
AcDbMaterial
  1
ByLayer
  0
MATERIAL
  5
3E
102
{ACAD_XDICTIONARY
360
77
102
}
102
{ACAD_REACTORS
330
3B
102
}
330
3B
100
AcDbMaterial
  1
Global
  0
MLINESTYLE
  5
18
102
{ACAD_REACTORS
330
17
102
}
330
17
100
AcDbMlineStyle
  2
STANDARD
 70
     0
  3

 62
   256
 51
90.0
 52
90.0
 71
     2
 49
0.5
 62
   256
  6
BYLAYER
 49
-0.5
 62
   256
  6
BYLAYER
  0
ACDBPLACEHOLDER
  5
F
102
{ACAD_REACTORS
330
E
102
}
330
E
  0
TABLESTYLE
  5
7E
102
{ACAD_REACTORS
330
79
102
}
330
79
100
AcDbTableStyle
  3
Standard
 70
     0
 71
     0
 40
0.06
 41
0.06
280
     0
281
     0
  7
Standard
140
0.18
170
     2
 62
     0
 63
     7
283
     0
274
    -2
284
     1
 64
     0
275
    -2
285
     1
 65
     0
276
    -2
286
     1
 66
     0
277
    -2
287
     1
 67
     0
278
    -2
288
     1
 68
     0
279
    -2
289
     1
 69
     0
  7
Standard
140
0.25
170
     5
 62
     0
 63
     7
283
     0
274
    -2
284
     1
 64
     0
275
    -2
285
     1
 65
     0
276
    -2
286
     1
 66
     0
277
    -2
287
     1
 67
     0
278
    -2
288
     1
 68
     0
279
    -2
289
     1
 69
     0
  7
Standard
140
0.18
170
     5
 62
     0
 63
     7
283
     0
274
    -2
284
     1
 64
     0
275
    -2
285
     1
 65
     0
276
    -2
286
     1
 66
     0
277
    -2
287
     1
 67
     0
278
    -2
288
     1
 68
     0
279
    -2
289
     1
 69
     0
  0
ACAD_PROXY_OBJECT
  5
2F
102
{ACAD_XDICTIONARY
360
5B
102
}
102
{ACAD_REACTORS
330
2A
102
}
330
2A
100
AcDbProxyObject
 90
      499
 91
      501
 95
       25
 70
     1
100
AcDbVisualStyle
  2
2dWireframe
 70
     4
 71
     0
 72
     2
 73
     0
 90
        0
 40
-0.6
 41
-30.0
 62
     5
 63
     7
421
 16777215
 74
     1
 91
        4
 64
     7
 65
   257
 75
     1
175
     1
 42
1.0
 92
        0
 66
   257
 43
1.0
 76
     1
 77
     6
 78
     2
 67
     7
 79
     5
170
     0
171
     0
290
     0
174
     0
 93
        1
 44
0.0
173
     0
291
     0
 45
0.0
1001
ACAD
1000
AcDbSavedByObjectVersion
1070
     0
1001
ACAD
1000
AcRTDxfName
1000
VISUALSTYLE
  0
ACAD_PROXY_OBJECT
  5
31
102
{ACAD_XDICTIONARY
360
5F
102
}
102
{ACAD_REACTORS
330
2A
102
}
330
2A
100
AcDbProxyObject
 90
      499
 91
      501
 95
       25
 70
     1
100
AcDbVisualStyle
  2
3D Hidden
 70
     6
 71
     1
 72
     2
 73
     2
 90
        0
 40
-0.6
 41
-30.0
 62
     5
 63
     7
421
 16777215
 74
     2
 91
        2
 64
     7
 65
   257
 75
     2
175
     1
 42
40.0
 92
        0
 66
   257
 43
1.0
 76
     1
 77
     6
 78
     2
 67
     7
 79
     3
170
     0
171
     0
290
     0
174
     0
 93
        1
 44
0.0
173
     0
291
     0
 45
0.0
1001
ACAD
1000
AcDbSavedByObjectVersion
1070
     0
1001
ACAD
1000
AcRTDxfName
1000
VISUALSTYLE
  0
ACAD_PROXY_OBJECT
  5
30
102
{ACAD_XDICTIONARY
360
5D
102
}
102
{ACAD_REACTORS
330
2A
102
}
330
2A
100
AcDbProxyObject
 90
      499
 91
      501
 95
       25
 70
     1
100
AcDbVisualStyle
  2
3dWireframe
 70
     5
 71
     0
 72
     2
 73
     0
 90
        0
 40
-0.6
 41
-30.0
 62
     5
 63
     7
421
 16777215
 74
     1
 91
        4
 64
     7
 65
   257
 75
     1
175
     1
 42
1.0
 92
        0
 66
   257
 43
1.0
 76
     1
 77
     6
 78
     2
 67
     7
 79
     5
170
     0
171
     0
290
     0
174
     0
 93
        1
 44
0.0
173
     0
291
     0
 45
0.0
1001
ACAD
1000
AcDbSavedByObjectVersion
1070
     0
1001
ACAD
1000
AcRTDxfName
1000
VISUALSTYLE
  0
ACAD_PROXY_OBJECT
  5
32
102
{ACAD_XDICTIONARY
360
61
102
}
102
{ACAD_REACTORS
330
2A
102
}
330
2A
100
AcDbProxyObject
 90
      499
 91
      501
 95
       25
 70
     1
100
AcDbVisualStyle
  2
Basic
 70
     7
 71
     1
 72
     0
 73
     1
 90
        0
 40
-0.6
 41
-30.0
 62
     5
 63
     7
421
 16777215
 74
     0
 91
        4
 64
     7
 65
   257
 75
     1
175
     1
 42
1.0
 92
        8
 66
     7
 43
1.0
 76
     1
 77
     6
 78
     2
 67
     7
 79
     5
170
     0
171
     0
290
     0
174
     0
 93
        1
 44
0.0
173
     0
291
     1
 45
0.0
1001
ACAD
1000
AcDbSavedByObjectVersion
1070
     0
1001
ACAD
1000
AcRTDxfName
1000
VISUALSTYLE
  0
ACAD_PROXY_OBJECT
  5
36
102
{ACAD_XDICTIONARY
360
69
102
}
102
{ACAD_REACTORS
330
2A
102
}
330
2A
100
AcDbProxyObject
 90
      499
 91
      501
 95
       25
 70
     1
100
AcDbVisualStyle
  2
Brighten
 70
    12
 71
     2
 72
     2
 73
     0
 90
        0
 40
-0.6
 41
-30.0
 62
     5
 63
     7
421
 16777215
 74
     1
 91
        4
 64
     7
 65
   257
 75
     1
175
     1
 42
1.0
 92
        8
 66
     7
 43
1.0
 76
     1
 77
     6
 78
     2
 67
     7
 79
     5
170
     0
171
     0
290
     0
174
     0
 93
        1
 44
50.0
173
     0
291
     1
 45
0.0
1001
ACAD
1000
AcDbSavedByObjectVersion
1070
     0
1001
ACAD
1000
AcRTDxfName
1000
VISUALSTYLE
  0
ACAD_PROXY_OBJECT
  5
3A
102
{ACAD_XDICTIONARY
360
71
102
}
102
{ACAD_REACTORS
330
2A
102
}
330
2A
100
AcDbProxyObject
 90
      499
 91
      501
 95
       25
 70
     1
100
AcDbVisualStyle
  2
ColorChange
 70
    16
 71
     2
 72
     2
 73
     3
 90
        0
 40
-0.6
 41
-30.0
 62
     5
 63
     8
421
  8421504
 74
     1
 91
        4
 64
     7
 65
   257
 75
     1
175
     1
 42
1.0
 92
        8
 66
     8
424
  8421504
 43
1.0
 76
     1
 77
     6
 78
     2
 67
     7
 79
     5
170
     0
171
     0
290
     0
174
     0
 93
        1
 44
0.0
173
     0
291
     1
 45
0.0
1001
ACAD
1000
AcDbSavedByObjectVersion
1070
     0
1001
ACAD
1000
AcRTDxfName
1000
VISUALSTYLE
  0
ACAD_PROXY_OBJECT
  5
34
102
{ACAD_XDICTIONARY
360
65
102
}
102
{ACAD_REACTORS
330
2A
102
}
330
2A
100
AcDbProxyObject
 90
      499
 91
      501
 95
       25
 70
     1
100
AcDbVisualStyle
  2
Conceptual
 70
     9
 71
     3
 72
     2
 73
     0
 90
        0
 40
-0.6
 41
-30.0
 62
     5
 63
     7
421
 16777215
 74
     2
 91
        2
 64
     7
 65
   257
 75
     1
175
     1
 42
40.0
 92
        8
 66
     7
 43
1.0
 76
     1
 77
     6
 78
     2
 67
     7
 79
     3
170
     0
171
     0
290
     0
174
     0
 93
        1
 44
0.0
173
     0
291
     0
 45
0.0
1001
ACAD
1000
AcDbSavedByObjectVersion
1070
     0
1001
ACAD
1000
AcRTDxfName
1000
VISUALSTYLE
  0
ACAD_PROXY_OBJECT
  5
35
102
{ACAD_XDICTIONARY
360
67
102
}
102
{ACAD_REACTORS
330
2A
102
}
330
2A
100
AcDbProxyObject
 90
      499
 91
      501
 95
       25
 70
     1
100
AcDbVisualStyle
  2
Dim
 70
    11
 71
     2
 72
     2
 73
     0
 90
        0
 40
-0.6
 41
-30.0
 62
     5
 63
     7
421
 16777215
 74
     1
 91
        4
 64
     7
 65
   257
 75
     1
175
     1
 42
1.0
 92
        8
 66
     7
 43
1.0
 76
     1
 77
     6
 78
     2
 67
     7
 79
     5
170
     0
171
     0
290
     0
174
     0
 93
        1
 44
-50.0
173
     0
291
     1
 45
0.0
1001
ACAD
1000
AcDbSavedByObjectVersion
1070
     0
1001
ACAD
1000
AcRTDxfName
1000
VISUALSTYLE
  0
ACAD_PROXY_OBJECT
  5
39
102
{ACAD_XDICTIONARY
360
6F
102
}
102
{ACAD_REACTORS
330
2A
102
}
330
2A
100
AcDbProxyObject
 90
      499
 91
      501
 95
       25
 70
     1
100
AcDbVisualStyle
  2
Facepattern
 70
    15
 71
     2
 72
     2
 73
     0
 90
        0
 40
-0.6
 41
-30.0
 62
     5
 63
     7
421
 16777215
 74
     1
 91
        4
 64
     7
 65
   257
 75
     1
175
     1
 42
1.0
 92
        8
 66
     7
 43
1.0
 76
     1
 77
     6
 78
     2
 67
     7
 79
     5
170
     0
171
     0
290
     0
174
     0
 93
        1
 44
0.0
173
     0
291
     1
 45
0.0
1001
ACAD
1000
AcDbSavedByObjectVersion
1070
     0
1001
ACAD
1000
AcRTDxfName
1000
VISUALSTYLE
  0
ACAD_PROXY_OBJECT
  5
2B
102
{ACAD_XDICTIONARY
360
53
102
}
102
{ACAD_REACTORS
330
2A
102
}
330
2A
100
AcDbProxyObject
 90
      499
 91
      501
 95
       25
 70
     1
100
AcDbVisualStyle
  2
Flat
 70
     0
 71
     2
 72
     1
 73
     1
 90
        2
 40
-0.6
 41
30.0
 62
     5
 63
     7
421
 16777215
 74
     0
 91
        4
 64
     7
 65
   257
 75
     1
175
     1
 42
1.0
 92
        8
 66
     7
 43
1.0
 76
     1
 77
     6
 78
     2
 67
     7
 79
     5
170
     0
171
     0
290
     0
174
     0
 93
       13
 44
0.0
173
     0
291
     1
 45
0.0
1001
ACAD
1000
AcDbSavedByObjectVersion
1070
     0
1001
ACAD
1000
AcRTDxfName
1000
VISUALSTYLE
  0
ACAD_PROXY_OBJECT
  5
2C
102
{ACAD_XDICTIONARY
360
55
102
}
102
{ACAD_REACTORS
330
2A
102
}
330
2A
100
AcDbProxyObject
 90
      499
 91
      501
 95
       25
 70
     1
100
AcDbVisualStyle
  2
FlatWithEdges
 70
     1
 71
     2
 72
     1
 73
     1
 90
        2
 40
-0.6
 41
30.0
 62
     5
 63
     7
421
 16777215
 74
     1
 91
        4
 64
     7
 65
   257
 75
     1
175
     1
 42
1.0
 92
        0
 66
   257
 43
1.0
 76
     1
 77
     6
 78
     2
 67
     7
 79
     5
170
     0
171
     0
290
     0
174
     0
 93
       13
 44
0.0
173
     0
291
     1
 45
0.0
1001
ACAD
1000
AcDbSavedByObjectVersion
1070
     0
1001
ACAD
1000
AcRTDxfName
1000
VISUALSTYLE
  0
ACAD_PROXY_OBJECT
  5
2D
102
{ACAD_XDICTIONARY
360
57
102
}
102
{ACAD_REACTORS
330
2A
102
}
330
2A
100
AcDbProxyObject
 90
      499
 91
      501
 95
       25
 70
     1
100
AcDbVisualStyle
  2
Gouraud
 70
     2
 71
     2
 72
     2
 73
     1
 90
        2
 40
-0.6
 41
30.0
 62
     5
 63
     7
421
 16777215
 74
     0
 91
        4
 64
     7
 65
   257
 75
     1
175
     1
 42
1.0
 92
        0
 66
     7
 43
1.0
 76
     1
 77
     6
 78
     2
 67
     7
 79
     5
170
     0
171
     0
290
     0
174
     0
 93
       13
 44
0.0
173
     0
291
     1
 45
0.0
1001
ACAD
1000
AcDbSavedByObjectVersion
1070
     0
1001
ACAD
1000
AcRTDxfName
1000
VISUALSTYLE
  0
ACAD_PROXY_OBJECT
  5
2E
102
{ACAD_XDICTIONARY
360
59
102
}
102
{ACAD_REACTORS
330
2A
102
}
330
2A
100
AcDbProxyObject
 90
      499
 91
      501
 95
       25
 70
     1
100
AcDbVisualStyle
  2
GouraudWithEdges
 70
     3
 71
     2
 72
     2
 73
     1
 90
        2
 40
-0.6
 41
30.0
 62
     5
 63
     7
421
 16777215
 74
     1
 91
        4
 64
     7
 65
   257
 75
     1
175
     1
 42
1.0
 92
        0
 66
   257
 43
1.0
 76
     1
 77
     6
 78
     2
 67
     7
 79
     5
170
     0
171
     0
290
     0
174
     0
 93
       13
 44
0.0
173
     0
291
     1
 45
0.0
1001
ACAD
1000
AcDbSavedByObjectVersion
1070
     0
1001
ACAD
1000
AcRTDxfName
1000
VISUALSTYLE
  0
ACAD_PROXY_OBJECT
  5
38
102
{ACAD_XDICTIONARY
360
6D
102
}
102
{ACAD_REACTORS
330
2A
102
}
330
2A
100
AcDbProxyObject
 90
      499
 91
      501
 95
       25
 70
     1
100
AcDbVisualStyle
  2
Linepattern
 70
    14
 71
     2
 72
     2
 73
     0
 90
        0
 40
-0.6
 41
-30.0
 62
     5
 63
     7
421
 16777215
 74
     1
 91
        4
 64
     7
 65
   257
 75
     7
175
     7
 42
1.0
 92
        8
 66
     7
 43
1.0
 76
     1
 77
     6
 78
     2
 67
     7
 79
     5
170
     0
171
     0
290
     0
174
     0
 93
        1
 44
0.0
173
     0
291
     1
 45
0.0
1001
ACAD
1000
AcDbSavedByObjectVersion
1070
     0
1001
ACAD
1000
AcRTDxfName
1000
VISUALSTYLE
  0
ACAD_PROXY_OBJECT
  5
33
102
{ACAD_XDICTIONARY
360
63
102
}
102
{ACAD_REACTORS
330
2A
102
}
330
2A
100
AcDbProxyObject
 90
      499
 91
      501
 95
       25
 70
     1
100
AcDbVisualStyle
  2
Realistic
 70
     8
 71
     2
 72
     2
 73
     0
 90
        0
 40
-0.6
 41
-30.0
 62
     5
 63
     7
421
 16777215
 74
     1
 91
        0
 64
     7
 65
   257
 75
     1
175
     1
 42
1.0
 92
        8
 66
     8
424
  7895160
 43
1.0
 76
     1
 77
     6
 78
     2
 67
     7
 79
     5
170
     0
171
     0
290
     0
174
     0
 93
       13
 44
0.0
173
     0
291
     0
 45
0.0
1001
ACAD
1000
AcDbSavedByObjectVersion
1070
     0
1001
ACAD
1000
AcRTDxfName
1000
VISUALSTYLE
  0
ACAD_PROXY_OBJECT
  5
37
102
{ACAD_XDICTIONARY
360
6B
102
}
102
{ACAD_REACTORS
330
2A
102
}
330
2A
100
AcDbProxyObject
 90
      499
 91
      501
 95
       25
 70
     1
100
AcDbVisualStyle
  2
Thicken
 70
    13
 71
     2
 72
     2
 73
     0
 90
        0
 40
-0.6
 41
-30.0
 62
     5
 63
     7
421
 16777215
 74
     1
 91
        4
 64
     7
 65
   257
 75
     1
175
     1
 42
1.0
 92
       12
 66
     7
 43
1.0
 76
     1
 77
     6
 78
     2
 67
     7
 79
     5
170
     0
171
     0
290
     0
174
     0
 93
        1
 44
0.0
173
     0
291
     1
 45
0.0
1001
ACAD
1000
AcDbSavedByObjectVersion
1070
     0
1001
ACAD
1000
AcRTDxfName
1000
VISUALSTYLE
  0
DICTIONARYVAR
  5
82
102
{ACAD_REACTORS
330
81
102
}
330
81
100
DictionaryVariables
280
     0
  1
STANDARD
  0
DICTIONARYVAR
  5
84
102
{ACAD_REACTORS
330
81
102
}
330
81
100
DictionaryVariables
280
     0
  1
2
  0
DICTIONARYVAR
  5
83
102
{ACAD_REACTORS
330
81
102
}
330
81
100
DictionaryVariables
280
     0
  1
1
  0
DICTIONARYVAR
  5
85
102
{ACAD_REACTORS
330
81
102
}
330
81
100
DictionaryVariables
280
     0
  1

  0
DICTIONARY
  5
89
330
1E
100
AcDbDictionary
280
     1
281
     1
  3
ACAD_XREC_ROUNDTRIP
360
8A
  0
DICTIONARY
  5
8D
330
26
100
AcDbDictionary
280
     1
281
     1
  3
ACAD_XREC_ROUNDTRIP
360
8E
  0
DICTIONARY
  5
8B
330
22
100
AcDbDictionary
280
     1
281
     1
  3
ACAD_XREC_ROUNDTRIP
360
8C
  0
DICTIONARY
  5
75
330
3D
100
AcDbDictionary
280
     1
281
     1
  3
ACAD_XREC_ROUNDTRIP
360
76
  0
DICTIONARY
  5
73
330
3C
100
AcDbDictionary
280
     1
281
     1
  3
ACAD_XREC_ROUNDTRIP
360
74
  0
DICTIONARY
  5
77
330
3E
100
AcDbDictionary
280
     1
281
     1
  3
ACAD_XREC_ROUNDTRIP
360
78
  0
DICTIONARY
  5
5B
330
2F
100
AcDbDictionary
280
     1
281
     1
  3
ACAD_XREC_ROUNDTRIP
360
5C
  0
DICTIONARY
  5
5F
330
31
100
AcDbDictionary
280
     1
281
     1
  3
ACAD_XREC_ROUNDTRIP
360
60
  0
DICTIONARY
  5
5D
330
30
100
AcDbDictionary
280
     1
281
     1
  3
ACAD_XREC_ROUNDTRIP
360
5E
  0
DICTIONARY
  5
61
330
32
100
AcDbDictionary
280
     1
281
     1
  3
ACAD_XREC_ROUNDTRIP
360
62
  0
DICTIONARY
  5
69
330
36
100
AcDbDictionary
280
     1
281
     1
  3
ACAD_XREC_ROUNDTRIP
360
6A
  0
DICTIONARY
  5
71
330
3A
100
AcDbDictionary
280
     1
281
     1
  3
ACAD_XREC_ROUNDTRIP
360
72
  0
DICTIONARY
  5
65
330
34
100
AcDbDictionary
280
     1
281
     1
  3
ACAD_XREC_ROUNDTRIP
360
66
  0
DICTIONARY
  5
67
330
35
100
AcDbDictionary
280
     1
281
     1
  3
ACAD_XREC_ROUNDTRIP
360
68
  0
DICTIONARY
  5
6F
330
39
100
AcDbDictionary
280
     1
281
     1
  3
ACAD_XREC_ROUNDTRIP
360
70
  0
DICTIONARY
  5
53
330
2B
100
AcDbDictionary
280
     1
281
     1
  3
ACAD_XREC_ROUNDTRIP
360
54
  0
DICTIONARY
  5
55
330
2C
100
AcDbDictionary
280
     1
281
     1
  3
ACAD_XREC_ROUNDTRIP
360
56
  0
DICTIONARY
  5
57
330
2D
100
AcDbDictionary
280
     1
281
     1
  3
ACAD_XREC_ROUNDTRIP
360
58
  0
DICTIONARY
  5
59
330
2E
100
AcDbDictionary
280
     1
281
     1
  3
ACAD_XREC_ROUNDTRIP
360
5A
  0
DICTIONARY
  5
6D
330
38
100
AcDbDictionary
280
     1
281
     1
  3
ACAD_XREC_ROUNDTRIP
360
6E
  0
DICTIONARY
  5
63
330
33
100
AcDbDictionary
280
     1
281
     1
  3
ACAD_XREC_ROUNDTRIP
360
64
  0
DICTIONARY
  5
6B
330
37
100
AcDbDictionary
280
     1
281
     1
  3
ACAD_XREC_ROUNDTRIP
360
6C
  0
XRECORD
  5
8A
102
{ACAD_REACTORS
330
89
102
}
330
89
100
AcDbXrecord
280
     1
102
SHADEPLOT
 70
     0
102
SHADEPLOTRESLEVEL
 70
     2
102
SHADEPLOTCUSTOMDPI
 70
   300
  0
XRECORD
  5
8E
102
{ACAD_REACTORS
330
8D
102
}
330
8D
100
AcDbXrecord
280
     1
102
SHADEPLOT
 70
     0
102
SHADEPLOTRESLEVEL
 70
     2
102
SHADEPLOTCUSTOMDPI
 70
   300
  0
XRECORD
  5
8C
102
{ACAD_REACTORS
330
8B
102
}
330
8B
100
AcDbXrecord
280
     1
102
SHADEPLOT
 70
     0
102
SHADEPLOTRESLEVEL
 70
     2
102
SHADEPLOTCUSTOMDPI
 70
   300
  0
XRECORD
  5
76
102
{ACAD_REACTORS
330
75
102
}
330
75
100
AcDbXrecord
280
     1
102
MATERIAL
148
0.0
149
0.0
149
0.0
 93
        0
 94
      127
282
     0
 72
     1
 77
     1
171
     1
175
     1
179
     1
273
     0
  0
XRECORD
  5
74
102
{ACAD_REACTORS
330
73
102
}
330
73
100
AcDbXrecord
280
     1
102
MATERIAL
148
0.0
149
0.0
149
0.0
 93
        0
 94
      127
282
     0
 72
     1
 77
     1
171
     1
175
     1
179
     1
273
     0
  0
XRECORD
  5
78
102
{ACAD_REACTORS
330
77
102
}
330
77
100
AcDbXrecord
280
     1
102
MATERIAL
148
0.0
149
0.0
149
0.0
 93
        0
 94
      127
282
     0
 72
     1
 77
     1
171
     1
175
     1
179
     1
273
     0
  0
XRECORD
  5
5C
102
{ACAD_REACTORS
330
5B
102
}
330
5B
100
AcDbXrecord
280
     1
102
RTVSPropertyOp0
 70
     1
102
RTVSPropertyOp1
 70
     1
102
RTVSPropertyOp2
 70
     1
102
RTVSPropertyOp3
 70
     1
102
RTVSPropertyOp4
 70
     1
102
RTVSPropertyOp5
 70
     1
102
RTVSPropertyOp6
 70
     1
102
RTVSPropertyOp7
 70
     1
102
RTVSPropertyOp8
 70
     1
102
RTVSPropertyOp9
 70
     1
102
RTVSPropertyOp10
 70
     1
102
RTVSPropertyOp11
 70
     1
102
RTVSPropertyOp12
 70
     1
102
RTVSPropertyOp13
 70
     1
102
RTVSPropertyOp14
 70
     1
102
RTVSPropertyOp15
 70
     1
102
RTVSPropertyOp16
 70
     1
102
RTVSPropertyOp17
 70
     1
102
RTVSPropertyOp18
 70
     1
102
RTVSPropertyOp19
 70
     1
102
RTVSPropertyOp20
 70
     1
102
RTVSPropertyOp21
 70
     1
102
RTVSPropertyOp22
 70
     1
102
RTVSPropertyOp23
 70
     1
102
RTVSPropertyOp24
 70
     1
102
RTVSPropertyOp25
 70
     1
102
RTVSPropertyOp26
 70
     1
102
RTVSPropertyOp27
 70
     1
  0
XRECORD
  5
60
102
{ACAD_REACTORS
330
5F
102
}
330
5F
100
AcDbXrecord
280
     1
102
RTVSPropertyOp0
 70
     1
102
RTVSPropertyOp1
 70
     1
102
RTVSPropertyOp2
 70
     1
102
RTVSPropertyOp3
 70
     1
102
RTVSPropertyOp4
 70
     1
102
RTVSPropertyOp5
 70
     1
102
RTVSPropertyOp6
 70
     1
102
RTVSPropertyOp7
 70
     1
102
RTVSPropertyOp8
 70
     1
102
RTVSPropertyOp9
 70
     1
102
RTVSPropertyOp10
 70
     1
102
RTVSPropertyOp11
 70
     1
102
RTVSPropertyOp12
 70
     1
102
RTVSPropertyOp13
 70
     1
102
RTVSPropertyOp14
 70
     1
102
RTVSPropertyOp15
 70
     1
102
RTVSPropertyOp16
 70
     1
102
RTVSPropertyOp17
 70
     1
102
RTVSPropertyOp18
 70
     1
102
RTVSPropertyOp19
 70
     1
102
RTVSPropertyOp20
 70
     1
102
RTVSPropertyOp21
 70
     1
102
RTVSPropertyOp22
 70
     1
102
RTVSPropertyOp23
 70
     1
102
RTVSPropertyOp24
 70
     1
102
RTVSPropertyOp25
 70
     1
102
RTVSPropertyOp26
 70
     1
102
RTVSPropertyOp27
 70
     1
  0
XRECORD
  5
5E
102
{ACAD_REACTORS
330
5D
102
}
330
5D
100
AcDbXrecord
280
     1
102
RTVSPropertyOp0
 70
     1
102
RTVSPropertyOp1
 70
     1
102
RTVSPropertyOp2
 70
     1
102
RTVSPropertyOp3
 70
     1
102
RTVSPropertyOp4
 70
     1
102
RTVSPropertyOp5
 70
     1
102
RTVSPropertyOp6
 70
     1
102
RTVSPropertyOp7
 70
     1
102
RTVSPropertyOp8
 70
     1
102
RTVSPropertyOp9
 70
     1
102
RTVSPropertyOp10
 70
     1
102
RTVSPropertyOp11
 70
     1
102
RTVSPropertyOp12
 70
     1
102
RTVSPropertyOp13
 70
     1
102
RTVSPropertyOp14
 70
     1
102
RTVSPropertyOp15
 70
     1
102
RTVSPropertyOp16
 70
     1
102
RTVSPropertyOp17
 70
     1
102
RTVSPropertyOp18
 70
     1
102
RTVSPropertyOp19
 70
     1
102
RTVSPropertyOp20
 70
     1
102
RTVSPropertyOp21
 70
     1
102
RTVSPropertyOp22
 70
     1
102
RTVSPropertyOp23
 70
     1
102
RTVSPropertyOp24
 70
     1
102
RTVSPropertyOp25
 70
     1
102
RTVSPropertyOp26
 70
     1
102
RTVSPropertyOp27
 70
     1
  0
XRECORD
  5
62
102
{ACAD_REACTORS
330
61
102
}
330
61
100
AcDbXrecord
280
     1
102
RTVSPropertyOp0
 70
     1
102
RTVSPropertyOp1
 70
     1
102
RTVSPropertyOp2
 70
     1
102
RTVSPropertyOp3
 70
     1
102
RTVSPropertyOp4
 70
     1
102
RTVSPropertyOp5
 70
     1
102
RTVSPropertyOp6
 70
     1
102
RTVSPropertyOp7
 70
     1
102
RTVSPropertyOp8
 70
     1
102
RTVSPropertyOp9
 70
     1
102
RTVSPropertyOp10
 70
     1
102
RTVSPropertyOp11
 70
     1
102
RTVSPropertyOp12
 70
     1
102
RTVSPropertyOp13
 70
     1
102
RTVSPropertyOp14
 70
     1
102
RTVSPropertyOp15
 70
     1
102
RTVSPropertyOp16
 70
     1
102
RTVSPropertyOp17
 70
     1
102
RTVSPropertyOp18
 70
     1
102
RTVSPropertyOp19
 70
     1
102
RTVSPropertyOp20
 70
     1
102
RTVSPropertyOp21
 70
     1
102
RTVSPropertyOp22
 70
     1
102
RTVSPropertyOp23
 70
     1
102
RTVSPropertyOp24
 70
     1
102
RTVSPropertyOp25
 70
     1
102
RTVSPropertyOp26
 70
     1
102
RTVSPropertyOp27
 70
     1
  0
XRECORD
  5
6A
102
{ACAD_REACTORS
330
69
102
}
330
69
100
AcDbXrecord
280
     1
102
RTVSPropertyOp0
 70
     1
102
RTVSPropertyOp1
 70
     1
102
RTVSPropertyOp2
 70
     1
102
RTVSPropertyOp3
 70
     1
102
RTVSPropertyOp4
 70
     1
102
RTVSPropertyOp5
 70
     1
102
RTVSPropertyOp6
 70
     1
102
RTVSPropertyOp7
 70
     1
102
RTVSPropertyOp8
 70
     1
102
RTVSPropertyOp9
 70
     1
102
RTVSPropertyOp10
 70
     1
102
RTVSPropertyOp11
 70
     1
102
RTVSPropertyOp12
 70
     1
102
RTVSPropertyOp13
 70
     1
102
RTVSPropertyOp14
 70
     1
102
RTVSPropertyOp15
 70
     1
102
RTVSPropertyOp16
 70
     1
102
RTVSPropertyOp17
 70
     1
102
RTVSPropertyOp18
 70
     1
102
RTVSPropertyOp19
 70
     1
102
RTVSPropertyOp20
 70
     1
102
RTVSPropertyOp21
 70
     1
102
RTVSPropertyOp22
 70
     1
102
RTVSPropertyOp23
 70
     1
102
RTVSPropertyOp24
 70
     1
102
RTVSPropertyOp25
 70
     1
102
RTVSPropertyOp26
 70
     1
102
RTVSPropertyOp27
 70
     1
  0
XRECORD
  5
72
102
{ACAD_REACTORS
330
71
102
}
330
71
100
AcDbXrecord
280
     1
102
RTVSPropertyOp0
 70
     1
102
RTVSPropertyOp1
 70
     1
102
RTVSPropertyOp2
 70
     1
102
RTVSPropertyOp3
 70
     1
102
RTVSPropertyOp4
 70
     1
102
RTVSPropertyOp5
 70
     1
102
RTVSPropertyOp6
 70
     1
102
RTVSPropertyOp7
 70
     1
102
RTVSPropertyOp8
 70
     1
102
RTVSPropertyOp9
 70
     1
102
RTVSPropertyOp10
 70
     1
102
RTVSPropertyOp11
 70
     1
102
RTVSPropertyOp12
 70
     1
102
RTVSPropertyOp13
 70
     1
102
RTVSPropertyOp14
 70
     1
102
RTVSPropertyOp15
 70
     1
102
RTVSPropertyOp16
 70
     1
102
RTVSPropertyOp17
 70
     1
102
RTVSPropertyOp18
 70
     1
102
RTVSPropertyOp19
 70
     1
102
RTVSPropertyOp20
 70
     1
102
RTVSPropertyOp21
 70
     1
102
RTVSPropertyOp22
 70
     1
102
RTVSPropertyOp23
 70
     1
102
RTVSPropertyOp24
 70
     1
102
RTVSPropertyOp25
 70
     1
102
RTVSPropertyOp26
 70
     1
102
RTVSPropertyOp27
 70
     1
  0
XRECORD
  5
66
102
{ACAD_REACTORS
330
65
102
}
330
65
100
AcDbXrecord
280
     1
102
RTVSPropertyOp0
 70
     1
102
RTVSPropertyOp1
 70
     1
102
RTVSPropertyOp2
 70
     1
102
RTVSPropertyOp3
 70
     1
102
RTVSPropertyOp4
 70
     1
102
RTVSPropertyOp5
 70
     1
102
RTVSPropertyOp6
 70
     1
102
RTVSPropertyOp7
 70
     1
102
RTVSPropertyOp8
 70
     1
102
RTVSPropertyOp9
 70
     1
102
RTVSPropertyOp10
 70
     1
102
RTVSPropertyOp11
 70
     1
102
RTVSPropertyOp12
 70
     1
102
RTVSPropertyOp13
 70
     1
102
RTVSPropertyOp14
 70
     1
102
RTVSPropertyOp15
 70
     1
102
RTVSPropertyOp16
 70
     1
102
RTVSPropertyOp17
 70
     1
102
RTVSPropertyOp18
 70
     1
102
RTVSPropertyOp19
 70
     1
102
RTVSPropertyOp20
 70
     1
102
RTVSPropertyOp21
 70
     1
102
RTVSPropertyOp22
 70
     1
102
RTVSPropertyOp23
 70
     1
102
RTVSPropertyOp24
 70
     1
102
RTVSPropertyOp25
 70
     1
102
RTVSPropertyOp26
 70
     1
102
RTVSPropertyOp27
 70
     1
  0
XRECORD
  5
68
102
{ACAD_REACTORS
330
67
102
}
330
67
100
AcDbXrecord
280
     1
102
RTVSPropertyOp0
 70
     1
102
RTVSPropertyOp1
 70
     1
102
RTVSPropertyOp2
 70
     1
102
RTVSPropertyOp3
 70
     1
102
RTVSPropertyOp4
 70
     1
102
RTVSPropertyOp5
 70
     1
102
RTVSPropertyOp6
 70
     1
102
RTVSPropertyOp7
 70
     1
102
RTVSPropertyOp8
 70
     1
102
RTVSPropertyOp9
 70
     1
102
RTVSPropertyOp10
 70
     1
102
RTVSPropertyOp11
 70
     1
102
RTVSPropertyOp12
 70
     1
102
RTVSPropertyOp13
 70
     1
102
RTVSPropertyOp14
 70
     1
102
RTVSPropertyOp15
 70
     1
102
RTVSPropertyOp16
 70
     1
102
RTVSPropertyOp17
 70
     1
102
RTVSPropertyOp18
 70
     1
102
RTVSPropertyOp19
 70
     1
102
RTVSPropertyOp20
 70
     1
102
RTVSPropertyOp21
 70
     1
102
RTVSPropertyOp22
 70
     1
102
RTVSPropertyOp23
 70
     1
102
RTVSPropertyOp24
 70
     1
102
RTVSPropertyOp25
 70
     1
102
RTVSPropertyOp26
 70
     1
102
RTVSPropertyOp27
 70
     1
  0
XRECORD
  5
70
102
{ACAD_REACTORS
330
6F
102
}
330
6F
100
AcDbXrecord
280
     1
102
RTVSPropertyOp0
 70
     1
102
RTVSPropertyOp1
 70
     1
102
RTVSPropertyOp2
 70
     1
102
RTVSPropertyOp3
 70
     1
102
RTVSPropertyOp4
 70
     1
102
RTVSPropertyOp5
 70
     1
102
RTVSPropertyOp6
 70
     1
102
RTVSPropertyOp7
 70
     1
102
RTVSPropertyOp8
 70
     1
102
RTVSPropertyOp9
 70
     1
102
RTVSPropertyOp10
 70
     1
102
RTVSPropertyOp11
 70
     1
102
RTVSPropertyOp12
 70
     1
102
RTVSPropertyOp13
 70
     1
102
RTVSPropertyOp14
 70
     1
102
RTVSPropertyOp15
 70
     1
102
RTVSPropertyOp16
 70
     1
102
RTVSPropertyOp17
 70
     1
102
RTVSPropertyOp18
 70
     1
102
RTVSPropertyOp19
 70
     1
102
RTVSPropertyOp20
 70
     1
102
RTVSPropertyOp21
 70
     1
102
RTVSPropertyOp22
 70
     1
102
RTVSPropertyOp23
 70
     1
102
RTVSPropertyOp24
 70
     1
102
RTVSPropertyOp25
 70
     1
102
RTVSPropertyOp26
 70
     1
102
RTVSPropertyOp27
 70
     1
  0
XRECORD
  5
54
102
{ACAD_REACTORS
330
53
102
}
330
53
100
AcDbXrecord
280
     1
102
RTVSPropertyOp0
 70
     1
102
RTVSPropertyOp1
 70
     1
102
RTVSPropertyOp2
 70
     1
102
RTVSPropertyOp3
 70
     1
102
RTVSPropertyOp4
 70
     1
102
RTVSPropertyOp5
 70
     1
102
RTVSPropertyOp6
 70
     1
102
RTVSPropertyOp7
 70
     1
102
RTVSPropertyOp8
 70
     1
102
RTVSPropertyOp9
 70
     1
102
RTVSPropertyOp10
 70
     1
102
RTVSPropertyOp11
 70
     1
102
RTVSPropertyOp12
 70
     1
102
RTVSPropertyOp13
 70
     1
102
RTVSPropertyOp14
 70
     1
102
RTVSPropertyOp15
 70
     1
102
RTVSPropertyOp16
 70
     1
102
RTVSPropertyOp17
 70
     1
102
RTVSPropertyOp18
 70
     1
102
RTVSPropertyOp19
 70
     1
102
RTVSPropertyOp20
 70
     1
102
RTVSPropertyOp21
 70
     1
102
RTVSPropertyOp22
 70
     1
102
RTVSPropertyOp23
 70
     1
102
RTVSPropertyOp24
 70
     1
102
RTVSPropertyOp25
 70
     1
102
RTVSPropertyOp26
 70
     1
102
RTVSPropertyOp27
 70
     1
  0
XRECORD
  5
56
102
{ACAD_REACTORS
330
55
102
}
330
55
100
AcDbXrecord
280
     1
102
RTVSPropertyOp0
 70
     1
102
RTVSPropertyOp1
 70
     1
102
RTVSPropertyOp2
 70
     1
102
RTVSPropertyOp3
 70
     1
102
RTVSPropertyOp4
 70
     1
102
RTVSPropertyOp5
 70
     1
102
RTVSPropertyOp6
 70
     1
102
RTVSPropertyOp7
 70
     1
102
RTVSPropertyOp8
 70
     1
102
RTVSPropertyOp9
 70
     1
102
RTVSPropertyOp10
 70
     1
102
RTVSPropertyOp11
 70
     1
102
RTVSPropertyOp12
 70
     1
102
RTVSPropertyOp13
 70
     1
102
RTVSPropertyOp14
 70
     1
102
RTVSPropertyOp15
 70
     1
102
RTVSPropertyOp16
 70
     1
102
RTVSPropertyOp17
 70
     1
102
RTVSPropertyOp18
 70
     1
102
RTVSPropertyOp19
 70
     1
102
RTVSPropertyOp20
 70
     1
102
RTVSPropertyOp21
 70
     1
102
RTVSPropertyOp22
 70
     1
102
RTVSPropertyOp23
 70
     1
102
RTVSPropertyOp24
 70
     1
102
RTVSPropertyOp25
 70
     1
102
RTVSPropertyOp26
 70
     1
102
RTVSPropertyOp27
 70
     1
  0
XRECORD
  5
58
102
{ACAD_REACTORS
330
57
102
}
330
57
100
AcDbXrecord
280
     1
102
RTVSPropertyOp0
 70
     1
102
RTVSPropertyOp1
 70
     1
102
RTVSPropertyOp2
 70
     1
102
RTVSPropertyOp3
 70
     1
102
RTVSPropertyOp4
 70
     1
102
RTVSPropertyOp5
 70
     1
102
RTVSPropertyOp6
 70
     1
102
RTVSPropertyOp7
 70
     1
102
RTVSPropertyOp8
 70
     1
102
RTVSPropertyOp9
 70
     1
102
RTVSPropertyOp10
 70
     1
102
RTVSPropertyOp11
 70
     1
102
RTVSPropertyOp12
 70
     1
102
RTVSPropertyOp13
 70
     1
102
RTVSPropertyOp14
 70
     1
102
RTVSPropertyOp15
 70
     1
102
RTVSPropertyOp16
 70
     1
102
RTVSPropertyOp17
 70
     1
102
RTVSPropertyOp18
 70
     1
102
RTVSPropertyOp19
 70
     1
102
RTVSPropertyOp20
 70
     1
102
RTVSPropertyOp21
 70
     1
102
RTVSPropertyOp22
 70
     1
102
RTVSPropertyOp23
 70
     1
102
RTVSPropertyOp24
 70
     1
102
RTVSPropertyOp25
 70
     1
102
RTVSPropertyOp26
 70
     1
102
RTVSPropertyOp27
 70
     1
  0
XRECORD
  5
5A
102
{ACAD_REACTORS
330
59
102
}
330
59
100
AcDbXrecord
280
     1
102
RTVSPropertyOp0
 70
     1
102
RTVSPropertyOp1
 70
     1
102
RTVSPropertyOp2
 70
     1
102
RTVSPropertyOp3
 70
     1
102
RTVSPropertyOp4
 70
     1
102
RTVSPropertyOp5
 70
     1
102
RTVSPropertyOp6
 70
     1
102
RTVSPropertyOp7
 70
     1
102
RTVSPropertyOp8
 70
     1
102
RTVSPropertyOp9
 70
     1
102
RTVSPropertyOp10
 70
     1
102
RTVSPropertyOp11
 70
     1
102
RTVSPropertyOp12
 70
     1
102
RTVSPropertyOp13
 70
     1
102
RTVSPropertyOp14
 70
     1
102
RTVSPropertyOp15
 70
     1
102
RTVSPropertyOp16
 70
     1
102
RTVSPropertyOp17
 70
     1
102
RTVSPropertyOp18
 70
     1
102
RTVSPropertyOp19
 70
     1
102
RTVSPropertyOp20
 70
     1
102
RTVSPropertyOp21
 70
     1
102
RTVSPropertyOp22
 70
     1
102
RTVSPropertyOp23
 70
     1
102
RTVSPropertyOp24
 70
     1
102
RTVSPropertyOp25
 70
     1
102
RTVSPropertyOp26
 70
     1
102
RTVSPropertyOp27
 70
     1
  0
XRECORD
  5
6E
102
{ACAD_REACTORS
330
6D
102
}
330
6D
100
AcDbXrecord
280
     1
102
RTVSPropertyOp0
 70
     1
102
RTVSPropertyOp1
 70
     1
102
RTVSPropertyOp2
 70
     1
102
RTVSPropertyOp3
 70
     1
102
RTVSPropertyOp4
 70
     1
102
RTVSPropertyOp5
 70
     1
102
RTVSPropertyOp6
 70
     1
102
RTVSPropertyOp7
 70
     1
102
RTVSPropertyOp8
 70
     1
102
RTVSPropertyOp9
 70
     1
102
RTVSPropertyOp10
 70
     1
102
RTVSPropertyOp11
 70
     1
102
RTVSPropertyOp12
 70
     1
102
RTVSPropertyOp13
 70
     1
102
RTVSPropertyOp14
 70
     1
102
RTVSPropertyOp15
 70
     1
102
RTVSPropertyOp16
 70
     1
102
RTVSPropertyOp17
 70
     1
102
RTVSPropertyOp18
 70
     1
102
RTVSPropertyOp19
 70
     1
102
RTVSPropertyOp20
 70
     1
102
RTVSPropertyOp21
 70
     1
102
RTVSPropertyOp22
 70
     1
102
RTVSPropertyOp23
 70
     1
102
RTVSPropertyOp24
 70
     1
102
RTVSPropertyOp25
 70
     1
102
RTVSPropertyOp26
 70
     1
102
RTVSPropertyOp27
 70
     1
  0
XRECORD
  5
64
102
{ACAD_REACTORS
330
63
102
}
330
63
100
AcDbXrecord
280
     1
102
RTVSPropertyOp0
 70
     1
102
RTVSPropertyOp1
 70
     1
102
RTVSPropertyOp2
 70
     1
102
RTVSPropertyOp3
 70
     1
102
RTVSPropertyOp4
 70
     1
102
RTVSPropertyOp5
 70
     1
102
RTVSPropertyOp6
 70
     1
102
RTVSPropertyOp7
 70
     1
102
RTVSPropertyOp8
 70
     1
102
RTVSPropertyOp9
 70
     1
102
RTVSPropertyOp10
 70
     1
102
RTVSPropertyOp11
 70
     1
102
RTVSPropertyOp12
 70
     1
102
RTVSPropertyOp13
 70
     1
102
RTVSPropertyOp14
 70
     1
102
RTVSPropertyOp15
 70
     1
102
RTVSPropertyOp16
 70
     1
102
RTVSPropertyOp17
 70
     1
102
RTVSPropertyOp18
 70
     1
102
RTVSPropertyOp19
 70
     1
102
RTVSPropertyOp20
 70
     1
102
RTVSPropertyOp21
 70
     1
102
RTVSPropertyOp22
 70
     1
102
RTVSPropertyOp23
 70
     1
102
RTVSPropertyOp24
 70
     1
102
RTVSPropertyOp25
 70
     1
102
RTVSPropertyOp26
 70
     1
102
RTVSPropertyOp27
 70
     1
  0
XRECORD
  5
6C
102
{ACAD_REACTORS
330
6B
102
}
330
6B
100
AcDbXrecord
280
     1
102
RTVSPropertyOp0
 70
     1
102
RTVSPropertyOp1
 70
     1
102
RTVSPropertyOp2
 70
     1
102
RTVSPropertyOp3
 70
     1
102
RTVSPropertyOp4
 70
     1
102
RTVSPropertyOp5
 70
     1
102
RTVSPropertyOp6
 70
     1
102
RTVSPropertyOp7
 70
     1
102
RTVSPropertyOp8
 70
     1
102
RTVSPropertyOp9
 70
     1
102
RTVSPropertyOp10
 70
     1
102
RTVSPropertyOp11
 70
     1
102
RTVSPropertyOp12
 70
     1
102
RTVSPropertyOp13
 70
     1
102
RTVSPropertyOp14
 70
     1
102
RTVSPropertyOp15
 70
     1
102
RTVSPropertyOp16
 70
     1
102
RTVSPropertyOp17
 70
     1
102
RTVSPropertyOp18
 70
     1
102
RTVSPropertyOp19
 70
     1
102
RTVSPropertyOp20
 70
     1
102
RTVSPropertyOp21
 70
     1
102
RTVSPropertyOp22
 70
     1
102
RTVSPropertyOp23
 70
     1
102
RTVSPropertyOp24
 70
     1
102
RTVSPropertyOp25
 70
     1
102
RTVSPropertyOp26
 70
     1
102
RTVSPropertyOp27
 70
     1
  0
ENDSEC
  0
EOF
